  0
SECTION
  2
HEADER
  9
$ACADVER
  1
AC1009
  9
$DWGCODEPAGE
  3
dos932
  9
$INSBASE
 10
0.0
 20
0.0
 30
0.0
  9
$EXTMIN
 10
0.0
 20
0.0
 30
0.0
  9
$EXTMAX
 10
210.0
 20
297.0
 30
0.0
  9
$LIMMIN
 10
0.0
 20
0.0
  9
$LIMMAX
 10
210.0
 20
297.0
  9
$ORTHOMODE
 70
     0
  9
$REGENMODE
 70
     1
  9
$FILLMODE
 70
     1
  9
$QTEXTMODE
 70
     0
  9
$MIRRTEXT
 70
     1
  9
$DRAGMODE
 70
     2
  9
$LTSCALE
 40
1.0
  9
$OSMODE
 70
    37
  9
$ATTMODE
 70
     1
  9
$TEXTSIZE
 40
3.5
  9
$TRACEWID
 40
1.0
  9
$TEXTSTYLE
  7
STANDARD
  9
$CLAYER
  8
0
  9
$CELTYPE
  6
BYLAYER
  9
$CECOLOR
 62
   256
  9
$DIMSCALE
 40
1.0
  9
$DIMASZ
 40
6.0
  9
$DIMEXO
 40
1.0
  9
$DIMDLI
 40
3.75
  9
$DIMRND
 40
0.0
  9
$DIMDLE
 40
0.0
  9
$DIMEXE
 40
1.0
  9
$DIMTP
 40
0.0
  9
$DIMTM
 40
0.0
  9
$DIMTXT
 40
3.5
  9
$DIMCEN
 40
2.5
  9
$DIMTSZ
 40
0.0
  9
$DIMTOL
 70
     0
  9
$DIMLIM
 70
     0
  9
$DIMTIH
 70
     1
  9
$DIMTOH
 70
     1
  9
$DIMSE1
 70
     0
  9
$DIMSE2
 70
     0
  9
$DIMTAD
 70
     1
  9
$DIMZIN
 70
     0
  9
$DIMBLK
  1

  9
$DIMASO
 70
     1
  9
$DIMSHO
 70
     1
  9
$DIMPOST
  1

  9
$DIMAPOST
  1

  9
$DIMALT
 70
     0
  9
$DIMALTD
 70
     3
  9
$DIMALTF
 40
0.0393700787
  9
$DIMLFAC
 40
1.0
  9
$DIMTOFL
 70
     1
  9
$DIMTVP
 40
0.0
  9
$DIMTIX
 70
     0
  9
$DIMSOXD
 70
     0
  9
$DIMSAH
 70
     0
  9
$DIMBLK1
  1

  9
$DIMBLK2
  1

  9
$DIMSTYLE
  2
ISO-25
  9
$DIMCLRD
 70
     0
  9
$DIMCLRE
 70
     0
  9
$DIMCLRT
 70
     0
  9
$DIMTFAC
 40
1.0
  9
$DIMGAP
 40
1.524
  9
$LUNITS
 70
     2
  9
$LUPREC
 70
     2
  9
$SKETCHINC
 40
1.0
  9
$FILLETRAD
 40
10.0
  9
$AUNITS
 70
     0
  9
$AUPREC
 70
     2
  9
$MENU
  1
.
  9
$ELEVATION
 40
0.0
  9
$PELEVATION
 40
0.0
  9
$THICKNESS
 40
0.0
  9
$LIMCHECK
 70
     0
  9
$CHAMFERA
 40
0.0
  9
$CHAMFERB
 40
0.0
  9
$SKPOLY
 70
     0
  9
$TDCREATE
 40
2457479.799481296
  9
$TDUPDATE
 40
2457479.799481481
  9
$TDINDWG
 40
0.0000000116
  9
$TDUSRTIMER
 40
0.0000000116
  9
$USRTIMER
 70
     1
  9
$ANGBASE
 50
0.0
  9
$ANGDIR
 70
     0
  9
$PDMODE
 70
     0
  9
$PDSIZE
 40
-1.0
  9
$PLINEWID
 40
0.0
  9
$COORDS
 70
     1
  9
$SPLFRAME
 70
     0
  9
$SPLINETYPE
 70
     6
  9
$SPLINESEGS
 70
     8
  9
$ATTDIA
 70
     0
  9
$ATTREQ
 70
     1
  9
$HANDLING
 70
     1
  9
$HANDSEED
  5
F2
  9
$SURFTAB1
 70
     6
  9
$SURFTAB2
 70
     6
  9
$SURFTYPE
 70
     6
  9
$SURFU
 70
     6
  9
$SURFV
 70
     6
  9
$UCSNAME
  2

  9
$UCSORG
 10
0.0
 20
0.0
 30
0.0
  9
$UCSXDIR
 10
1.0
 20
0.0
 30
0.0
  9
$UCSYDIR
 10
0.0
 20
1.0
 30
0.0
  9
$PUCSNAME
  2

  9
$PUCSORG
 10
0.0
 20
0.0
 30
0.0
  9
$PUCSXDIR
 10
1.0
 20
0.0
 30
0.0
  9
$PUCSYDIR
 10
0.0
 20
1.0
 30
0.0
  9
$USERI1
 70
     0
  9
$USERI2
 70
     0
  9
$USERI3
 70
     0
  9
$USERI4
 70
     0
  9
$USERI5
 70
     0
  9
$USERR1
 40
0.0
  9
$USERR2
 40
0.0
  9
$USERR3
 40
0.0
  9
$USERR4
 40
0.0
  9
$USERR5
 40
0.0
  9
$WORLDVIEW
 70
     1
  9
$SHADEDGE
 70
     3
  9
$SHADEDIF
 70
    70
  9
$TILEMODE
 70
     1
  9
$MAXACTVP
 70
    64
  9
$PLIMCHECK
 70
     0
  9
$PEXTMIN
 10
1.0000000000E+20
 20
1.0000000000E+20
 30
1.0000000000E+20
  9
$PEXTMAX
 10
-1.0000000000E+20
 20
-1.0000000000E+20
 30
-1.0000000000E+20
  9
$PLIMMIN
 10
0.0
 20
0.0
  9
$PLIMMAX
 10
420.0
 20
297.0
  9
$UNITMODE
 70
     0
  9
$VISRETAIN
 70
     1
  9
$PLINEGEN
 70
     0
  9
$PSLTSCALE
 70
     1
  0
ENDSEC
  0
SECTION
  2
TABLES
  0
TABLE
  2
VPORT
 70
     1
  0
VPORT
  2
*ACTIVE
 70
     0
 10
0.0
 20
0.0
 11
1.0
 21
1.0
 12
105.0
 22
148.5
 13
0.0
 23
0.0
 14
10.0
 24
10.0
 15
10.0
 25
10.0
 16
0.0
 26
0.0
 36
1.0
 17
0.0
 27
0.0
 37
0.0
 40
297.0
 41
0.7070707071
 42
50.0
 43
0.0
 44
0.0
 50
0.0
 51
0.0
 71
     0
 72
  2000
 73
     1
 74
     3
 75
     0
 76
     0
 77
     0
 78
     0
  0
ENDTAB
  0
TABLE
  2
LTYPE
 70
     8
  0
LTYPE
  2
CONTINUOUS
 70
     0
  3
Solid line
 72
    65
 73
     0
 40
0.0
  0
LTYPE
  2
SLD-実線
 70
     0
  3
SolidWorks Line Style
 72
    65
 73
     0
 40
0.0
  0
LTYPE
  2
SLD-破線
 70
     0
  3
SolidWorks Line Style
 72
    65
 73
     2
 40
1.905
 49
1.27
 49
-0.635
  0
LTYPE
  2
SLD-2点鎖線
 70
     0
  3
SolidWorks Line Style
 72
    65
 73
     6
 40
12.7
 49
6.35
 49
-1.27
 49
1.27
 49
-1.27
 49
1.27
 49
-1.27
  0
LTYPE
  2
SLD-鎖線
 70
     0
  3
SolidWorks Line Style
 72
    65
 73
     4
 40
10.16
 49
6.35
 49
-1.27
 49
1.27
 49
-1.27
  0
LTYPE
  2
SLD-1点鎖線_中心線_
 70
     0
  3
SolidWorks Line Style
 72
    65
 73
     4
 40
34.29
 49
30.48
 49
-1.27
 49
1.27
 49
-1.27
  0
LTYPE
  2
SLD-点線
 70
     0
  3
SolidWorks Line Style
 72
    65
 73
     2
 40
0.635
 49
0.0
 49
-0.635
  0
LTYPE
  2
SLD-細-太鎖線_切断面_
 70
     0
  3
SolidWorks Line Style
 72
    65
 73
     4
 40
10.16
 49
6.35
 49
-1.27
 49
1.27
 49
-1.27
  0
ENDTAB
  0
TABLE
  2
LAYER
 70
     1
  0
LAYER
  2
0
 70
     0
 62
     7
  6
CONTINUOUS
  0
ENDTAB
  0
TABLE
  2
STYLE
 70
     1
  0
STYLE
  2
STANDARD
 70
     0
 40
0.0
 41
1.0
 50
0.0
 71
     0
 42
3.5
  3
txt
  4
bigfont
  0
ENDTAB
  0
TABLE
  2
VIEW
 70
     0
  0
ENDTAB
  0
TABLE
  2
UCS
 70
     0
  0
ENDTAB
  0
TABLE
  2
APPID
 70
     1
  0
APPID
  2
ACAD
 70
     0
  0
ENDTAB
  0
TABLE
  2
DIMSTYLE
 70
     1
  0
DIMSTYLE
  2
ISO-25
 70
     0
  3

  4

  5

  6

  7

 40
1.0
 41
2.5
 42
0.625
 43
3.75
 44
1.25
 45
0.0
 46
0.0
 47
0.0
 48
0.0
140
2.5
141
2.5
142
0.0
143
0.0393700787
144
1.0
145
0.0
146
1.0
147
0.625
 71
     0
 72
     0
 73
     0
 74
     0
 75
     0
 76
     0
 77
     1
 78
     8
170
     0
171
     3
172
     1
173
     0
174
     0
175
     0
176
     0
177
     0
178
     0
  0
ENDTAB
  0
ENDSEC
  0
SECTION
  2
BLOCKS
  0
BLOCK
  8
0
  2
$MODEL_SPACE
 70
     0
 10
0.0
 20
0.0
 30
0.0
  3
$MODEL_SPACE
  1

  0
ENDBLK
  5
21
  8
0
  0
BLOCK
 67
     1
  8
0
  2
$PAPER_SPACE
 70
     0
 10
0.0
 20
0.0
 30
0.0
  3
$PAPER_SPACE
  1

  0
ENDBLK
  5
1D
 67
     1
  8
0
  0
ENDSEC
  0
SECTION
  2
ENTITIES
  0
LINE
  5
71
  8
0
  6
SLD-実線
 62
     7
 10
99.000025
 20
216.499975
 30
0.0
 11
61.000025
 21
216.499975
 31
0.0
  0
LINE
  5
72
  8
0
  6
SLD-実線
 62
     7
 10
61.000025
 20
183.499975
 30
0.0
 11
99.000025
 21
183.499975
 31
0.0
  0
LINE
  5
73
  8
0
  6
SLD-実線
 62
     7
 10
61.000025
 20
216.499975
 30
0.0
 11
61.000025
 21
183.499975
 31
0.0
  0
LINE
  5
74
  8
0
  6
SLD-実線
 62
     7
 10
99.000025
 20
183.499975
 30
0.0
 11
99.000025
 21
216.499975
 31
0.0
  0
LINE
  5
75
  8
0
  6
SLD-実線
 62
     7
 10
119.85
 20
183.499975
 30
0.0
 11
119.85
 21
216.499975
 31
0.0
  0
LINE
  5
76
  8
0
  6
SLD-実線
 62
     7
 10
155.65
 20
216.499975
 30
0.0
 11
155.65
 21
214.499975
 31
0.0
  0
LINE
  5
77
  8
0
  6
SLD-実線
 62
     7
 10
155.65
 20
183.499975
 30
0.0
 11
155.65
 21
185.499975
 31
0.0
  0
LINE
  5
78
  8
0
  6
SLD-実線
 62
     7
 10
119.85
 20
183.499975
 30
0.0
 11
155.65
 21
183.499975
 31
0.0
  0
LINE
  5
79
  8
0
  6
SLD-実線
 62
     7
 10
119.85
 20
216.499975
 30
0.0
 11
155.65
 21
216.499975
 31
0.0
  0
LINE
  5
7A
  8
0
  6
SLD-実線
 62
     7
 10
155.65
 20
185.499975
 30
0.0
 11
155.65
 21
214.499975
 31
0.0
  0
LINE
  5
7B
  8
0
  6
SLD-実線
 62
     7
 10
156.15
 20
216.4781445285
 30
0.0
 11
156.15
 21
214.5218054715
 31
0.0
  0
LINE
  5
7C
  8
0
  6
SLD-実線
 62
     7
 10
156.15
 20
216.4781445285
 30
0.0
 11
155.65
 21
216.499975
 31
0.0
  0
LINE
  5
7D
  8
0
  6
SLD-実線
 62
     7
 10
156.15
 20
214.5218054715
 30
0.0
 11
155.65
 21
214.499975
 31
0.0
  0
LINE
  5
7E
  8
0
  6
SLD-実線
 62
     7
 10
156.15
 20
185.4781445285
 30
0.0
 11
156.15
 21
183.5218054715
 31
0.0
  0
LINE
  5
7F
  8
0
  6
SLD-実線
 62
     7
 10
156.15
 20
183.5218054715
 30
0.0
 11
155.65
 21
183.499975
 31
0.0
  0
LINE
  5
80
  8
0
  6
SLD-実線
 62
     7
 10
156.15
 20
185.4781445285
 30
0.0
 11
155.65
 21
185.499975
 31
0.0
  0
LINE
  5
81
  8
0
  6
SLD-実線
 62
     7
 10
160.15
 20
190.599975
 30
0.0
 11
155.65
 21
190.599975
 31
0.0
  0
LINE
  5
82
  8
0
  6
SLD-実線
 62
     7
 10
160.15
 20
190.599975
 30
0.0
 11
160.15
 21
188.999975
 31
0.0
  0
LINE
  5
83
  8
0
  6
SLD-実線
 62
     7
 10
160.15
 20
188.999975
 30
0.0
 11
155.65
 21
188.999975
 31
0.0
  0
LINE
  5
84
  8
0
  6
SLD-実線
 62
     7
 10
160.15
 20
207.999975
 30
0.0
 11
155.65
 21
207.999975
 31
0.0
  0
LINE
  5
85
  8
0
  6
SLD-実線
 62
     7
 10
160.15
 20
208.799975
 30
0.0
 11
155.65
 21
208.799975
 31
0.0
  0
LINE
  5
86
  8
0
  6
SLD-実線
 62
     7
 10
160.15
 20
208.799975
 30
0.0
 11
160.15
 21
207.999975
 31
0.0
  0
LINE
  5
87
  8
0
  6
SLD-実線
 62
     7
 10
61.000025
 20
170.15
 30
0.0
 11
99.000025
 21
170.15
 31
0.0
  0
LINE
  5
88
  8
0
  6
SLD-実線
 62
     7
 10
99.000025
 20
170.15
 30
0.0
 11
99.000025
 21
134.35
 31
0.0
  0
LINE
  5
89
  8
0
  6
SLD-実線
 62
     7
 10
99.000025
 20
134.35
 30
0.0
 11
96.000025
 21
134.35
 31
0.0
  0
LINE
  5
8A
  8
0
  6
SLD-実線
 62
     7
 10
61.000025
 20
134.35
 30
0.0
 11
64.000025
 21
134.35
 31
0.0
  0
LINE
  5
8B
  8
0
  6
SLD-実線
 62
     7
 10
61.000025
 20
170.15
 30
0.0
 11
61.000025
 21
134.35
 31
0.0
  0
LINE
  5
8C
  8
0
  6
SLD-実線
 62
     7
 10
64.000025
 20
134.35
 30
0.0
 11
96.000025
 21
134.35
 31
0.0
  0
LINE
  5
8D
  8
0
  6
SLD-実線
 62
     7
 10
63.9781945285
 20
133.85
 30
0.0
 11
61.0218554715
 21
133.85
 31
0.0
  0
LINE
  5
8E
  8
0
  6
SLD-実線
 62
     7
 10
63.9781945285
 20
133.85
 30
0.0
 11
64.000025
 21
134.35
 31
0.0
  0
LINE
  5
8F
  8
0
  6
SLD-実線
 62
     7
 10
61.0218554715
 20
133.85
 30
0.0
 11
61.000025
 21
134.35
 31
0.0
  0
LINE
  5
90
  8
0
  6
SLD-実線
 62
     7
 10
98.9781945285
 20
133.85
 30
0.0
 11
99.000025
 21
134.35
 31
0.0
  0
LINE
  5
91
  8
0
  6
SLD-実線
 62
     7
 10
98.9781945285
 20
133.85
 30
0.0
 11
96.0218554715
 21
133.85
 31
0.0
  0
LINE
  5
92
  8
0
  6
SLD-実線
 62
     7
 10
96.0218554715
 20
133.85
 30
0.0
 11
96.000025
 21
134.35
 31
0.0
  0
LINE
  5
93
  8
0
  6
SLD-実線
 62
     7
 10
96.400025
 20
129.85
 30
0.0
 11
95.600025
 21
129.85
 31
0.0
  0
LINE
  5
94
  8
0
  6
SLD-実線
 62
     7
 10
95.600025
 20
129.85
 30
0.0
 11
95.600025
 21
134.35
 31
0.0
  0
LINE
  5
95
  8
0
  6
SLD-実線
 62
     7
 10
96.400025
 20
129.85
 30
0.0
 11
96.400025
 21
133.85
 31
0.0
  0
LINE
  5
96
  8
0
  6
SLD-実線
 62
     7
 10
64.400025
 20
129.85
 30
0.0
 11
64.400025
 21
134.35
 31
0.0
  0
LINE
  5
97
  8
0
  6
SLD-実線
 62
     7
 10
63.600025
 20
129.85
 30
0.0
 11
63.600025
 21
133.85
 31
0.0
  0
LINE
  5
98
  8
0
  6
SLD-実線
 62
     7
 10
64.400025
 20
129.85
 30
0.0
 11
63.600025
 21
129.85
 31
0.0
  0
LINE
  5
99
  8
0
  6
SLD-実線
 62
     7
 10
71.150025
 20
129.85
 30
0.0
 11
71.150025
 21
134.35
 31
0.0
  0
LINE
  5
9A
  8
0
  6
SLD-実線
 62
     7
 10
71.150025
 20
129.85
 30
0.0
 11
69.550025
 21
129.85
 31
0.0
  0
LINE
  5
9B
  8
0
  6
SLD-実線
 62
     7
 10
69.550025
 20
129.85
 30
0.0
 11
69.550025
 21
134.35
 31
0.0
  0
LINE
  5
9C
  8
0
  6
SLD-実線
 62
     7
 10
66.450025
 20
129.85
 30
0.0
 11
66.450025
 21
134.35
 31
0.0
  0
LINE
  5
9D
  8
0
  6
SLD-実線
 62
     7
 10
66.450025
 20
129.85
 30
0.0
 11
64.850025
 21
129.85
 31
0.0
  0
LINE
  5
9E
  8
0
  6
SLD-実線
 62
     7
 10
64.850025
 20
129.85
 30
0.0
 11
64.850025
 21
134.35
 31
0.0
  0
LINE
  5
9F
  8
0
  6
SLD-実線
 62
     7
 10
95.150025
 20
129.85
 30
0.0
 11
95.150025
 21
134.35
 31
0.0
  0
LINE
  5
A0
  8
0
  6
SLD-実線
 62
     7
 10
95.150025
 20
129.85
 30
0.0
 11
93.550025
 21
129.85
 31
0.0
  0
LINE
  5
A1
  8
0
  6
SLD-実線
 62
     7
 10
93.550025
 20
129.85
 30
0.0
 11
93.550025
 21
134.35
 31
0.0
  0
LINE
  5
A2
  8
0
  6
SLD-実線
 62
     7
 10
90.450025
 20
129.85
 30
0.0
 11
88.850025
 21
129.85
 31
0.0
  0
LINE
  5
A3
  8
0
  6
SLD-実線
 62
     7
 10
88.850025
 20
129.85
 30
0.0
 11
88.850025
 21
134.35
 31
0.0
  0
LINE
  5
A4
  8
0
  6
SLD-実線
 62
     7
 10
90.450025
 20
129.85
 30
0.0
 11
90.450025
 21
134.35
 31
0.0
  0
LINE
  5
A5
  8
0
  6
SLD-実線
 62
     7
 10
64.399975
 20
90.599975
 30
0.0
 11
63.599975
 21
90.599975
 31
0.0
  0
LINE
  5
A6
  8
0
  6
SLD-実線
 62
     7
 10
64.399975
 20
88.999975
 30
0.0
 11
64.399975
 21
90.599975
 31
0.0
  0
LINE
  5
A7
  8
0
  6
SLD-実線
 62
     7
 10
63.599975
 20
88.999975
 30
0.0
 11
64.399975
 21
88.999975
 31
0.0
  0
LINE
  5
A8
  8
0
  6
SLD-実線
 62
     7
 10
63.599975
 20
90.599975
 30
0.0
 11
63.599975
 21
88.999975
 31
0.0
  0
LINE
  5
A9
  8
0
  6
SLD-実線
 62
     7
 10
64.849975
 20
107.999975
 30
0.0
 11
66.449975
 21
107.999975
 31
0.0
  0
LINE
  5
AA
  8
0
  6
SLD-実線
 62
     7
 10
64.849975
 20
108.799975
 30
0.0
 11
64.849975
 21
107.999975
 31
0.0
  0
LINE
  5
AB
  8
0
  6
SLD-実線
 62
     7
 10
66.449975
 20
108.799975
 30
0.0
 11
64.849975
 21
108.799975
 31
0.0
  0
LINE
  5
AC
  8
0
  6
SLD-実線
 62
     7
 10
66.449975
 20
107.999975
 30
0.0
 11
66.449975
 21
108.799975
 31
0.0
  0
LINE
  5
AD
  8
0
  6
SLD-実線
 62
     7
 10
93.549975
 20
108.799975
 30
0.0
 11
93.549975
 21
107.999975
 31
0.0
  0
LINE
  5
AE
  8
0
  6
SLD-実線
 62
     7
 10
95.149975
 20
108.799975
 30
0.0
 11
93.549975
 21
108.799975
 31
0.0
  0
LINE
  5
AF
  8
0
  6
SLD-実線
 62
     7
 10
95.149975
 20
107.999975
 30
0.0
 11
95.149975
 21
108.799975
 31
0.0
  0
LINE
  5
B0
  8
0
  6
SLD-実線
 62
     7
 10
93.549975
 20
107.999975
 30
0.0
 11
95.149975
 21
107.999975
 31
0.0
  0
LINE
  5
B1
  8
0
  6
SLD-実線
 62
     7
 10
95.599975
 20
90.599975
 30
0.0
 11
95.599975
 21
88.999975
 31
0.0
  0
LINE
  5
B2
  8
0
  6
SLD-実線
 62
     7
 10
96.399975
 20
90.599975
 30
0.0
 11
95.599975
 21
90.599975
 31
0.0
  0
LINE
  5
B3
  8
0
  6
SLD-実線
 62
     7
 10
96.399975
 20
88.999975
 30
0.0
 11
96.399975
 21
90.599975
 31
0.0
  0
LINE
  5
B4
  8
0
  6
SLD-実線
 62
     7
 10
95.599975
 20
88.999975
 30
0.0
 11
96.399975
 21
88.999975
 31
0.0
  0
LINE
  5
B5
  8
0
  6
SLD-実線
 62
     7
 10
88.849975
 20
108.799975
 30
0.0
 11
88.849975
 21
107.999975
 31
0.0
  0
LINE
  5
B6
  8
0
  6
SLD-実線
 62
     7
 10
90.449975
 20
108.799975
 30
0.0
 11
88.849975
 21
108.799975
 31
0.0
  0
LINE
  5
B7
  8
0
  6
SLD-実線
 62
     7
 10
90.449975
 20
107.999975
 30
0.0
 11
90.449975
 21
108.799975
 31
0.0
  0
LINE
  5
B8
  8
0
  6
SLD-実線
 62
     7
 10
88.849975
 20
107.999975
 30
0.0
 11
90.449975
 21
107.999975
 31
0.0
  0
LINE
  5
B9
  8
0
  6
SLD-実線
 62
     7
 10
69.549975
 20
107.999975
 30
0.0
 11
71.149975
 21
107.999975
 31
0.0
  0
LINE
  5
BA
  8
0
  6
SLD-実線
 62
     7
 10
69.549975
 20
108.799975
 30
0.0
 11
69.549975
 21
107.999975
 31
0.0
  0
LINE
  5
BB
  8
0
  6
SLD-実線
 62
     7
 10
71.149975
 20
108.799975
 30
0.0
 11
69.549975
 21
108.799975
 31
0.0
  0
LINE
  5
BC
  8
0
  6
SLD-実線
 62
     7
 10
71.149975
 20
107.999975
 30
0.0
 11
71.149975
 21
108.799975
 31
0.0
  0
LINE
  5
BD
  8
0
  6
SLD-実線
 62
     7
 10
96.0218054715
 20
116.4781445285
 30
0.0
 11
95.999975
 21
116.499975
 31
0.0
  0
LINE
  5
BE
  8
0
  6
SLD-実線
 62
     7
 10
96.0218054715
 20
116.4781445285
 30
0.0
 11
96.0218054715
 21
114.5218054715
 31
0.0
  0
LINE
  5
BF
  8
0
  6
SLD-実線
 62
     7
 10
96.0218054715
 20
114.5218054715
 30
0.0
 11
95.999975
 21
114.499975
 31
0.0
  0
LINE
  5
C0
  8
0
  6
SLD-実線
 62
     7
 10
95.999975
 20
116.499975
 30
0.0
 11
95.999975
 21
114.499975
 31
0.0
  0
LINE
  5
C1
  8
0
  6
SLD-実線
 62
     7
 10
98.9781445285
 20
116.4781445285
 30
0.0
 11
98.999975
 21
116.499975
 31
0.0
  0
LINE
  5
C2
  8
0
  6
SLD-実線
 62
     7
 10
98.9781445285
 20
116.4781445285
 30
0.0
 11
96.0218054715
 21
116.4781445285
 31
0.0
  0
LINE
  5
C3
  8
0
  6
SLD-実線
 62
     7
 10
98.999975
 20
116.499975
 30
0.0
 11
95.999975
 21
116.499975
 31
0.0
  0
LINE
  5
C4
  8
0
  6
SLD-実線
 62
     7
 10
98.9781445285
 20
114.5218054715
 30
0.0
 11
98.999975
 21
114.499975
 31
0.0
  0
LINE
  5
C5
  8
0
  6
SLD-実線
 62
     7
 10
98.9781445285
 20
114.5218054715
 30
0.0
 11
98.9781445285
 21
116.4781445285
 31
0.0
  0
LINE
  5
C6
  8
0
  6
SLD-実線
 62
     7
 10
98.999975
 20
116.499975
 30
0.0
 11
98.999975
 21
114.499975
 31
0.0
  0
LINE
  5
C7
  8
0
  6
SLD-実線
 62
     7
 10
96.0218054715
 20
114.5218054715
 30
0.0
 11
98.9781445285
 21
114.5218054715
 31
0.0
  0
LINE
  5
C8
  8
0
  6
SLD-実線
 62
     7
 10
95.999975
 20
114.499975
 30
0.0
 11
98.999975
 21
114.499975
 31
0.0
  0
LINE
  5
C9
  8
0
  6
SLD-実線
 62
     7
 10
63.9781445285
 20
83.5218054715
 30
0.0
 11
63.999975
 21
83.499975
 31
0.0
  0
LINE
  5
CA
  8
0
  6
SLD-実線
 62
     7
 10
63.9781445285
 20
83.5218054715
 30
0.0
 11
63.9781445285
 21
85.4781445285
 31
0.0
  0
LINE
  5
CB
  8
0
  6
SLD-実線
 62
     7
 10
63.9781445285
 20
85.4781445285
 30
0.0
 11
63.999975
 21
85.499975
 31
0.0
  0
LINE
  5
CC
  8
0
  6
SLD-実線
 62
     7
 10
63.999975
 20
83.499975
 30
0.0
 11
63.999975
 21
85.499975
 31
0.0
  0
LINE
  5
CD
  8
0
  6
SLD-実線
 62
     7
 10
63.9781445285
 20
85.4781445285
 30
0.0
 11
61.0218054715
 21
85.4781445285
 31
0.0
  0
LINE
  5
CE
  8
0
  6
SLD-実線
 62
     7
 10
61.0218054715
 20
85.4781445285
 30
0.0
 11
60.999975
 21
85.499975
 31
0.0
  0
LINE
  5
CF
  8
0
  6
SLD-実線
 62
     7
 10
63.999975
 20
85.499975
 30
0.0
 11
60.999975
 21
85.499975
 31
0.0
  0
LINE
  5
D0
  8
0
  6
SLD-実線
 62
     7
 10
96.0218054715
 20
83.5218054715
 30
0.0
 11
98.9781445285
 21
83.5218054715
 31
0.0
  0
LINE
  5
D1
  8
0
  6
SLD-実線
 62
     7
 10
96.0218054715
 20
85.4781445285
 30
0.0
 11
96.0218054715
 21
83.5218054715
 31
0.0
  0
LINE
  5
D2
  8
0
  6
SLD-実線
 62
     7
 10
98.9781445285
 20
85.4781445285
 30
0.0
 11
96.0218054715
 21
85.4781445285
 31
0.0
  0
LINE
  5
D3
  8
0
  6
SLD-実線
 62
     7
 10
98.9781445285
 20
83.5218054715
 30
0.0
 11
98.9781445285
 21
85.4781445285
 31
0.0
  0
LINE
  5
D4
  8
0
  6
SLD-実線
 62
     7
 10
61.0218054715
 20
83.5218054715
 30
0.0
 11
60.999975
 21
83.499975
 31
0.0
  0
LINE
  5
D5
  8
0
  6
SLD-実線
 62
     7
 10
61.0218054715
 20
83.5218054715
 30
0.0
 11
63.9781445285
 21
83.5218054715
 31
0.0
  0
LINE
  5
D6
  8
0
  6
SLD-実線
 62
     7
 10
60.999975
 20
83.499975
 30
0.0
 11
63.999975
 21
83.499975
 31
0.0
  0
LINE
  5
D7
  8
0
  6
SLD-実線
 62
     7
 10
96.0218054715
 20
83.5218054715
 30
0.0
 11
95.999975
 21
83.499975
 31
0.0
  0
LINE
  5
D8
  8
0
  6
SLD-実線
 62
     7
 10
98.9781445285
 20
83.5218054715
 30
0.0
 11
98.999975
 21
83.499975
 31
0.0
  0
LINE
  5
D9
  8
0
  6
SLD-実線
 62
     7
 10
98.999975
 20
83.499975
 30
0.0
 11
95.999975
 21
83.499975
 31
0.0
  0
LINE
  5
DA
  8
0
  6
SLD-実線
 62
     7
 10
98.9781445285
 20
85.4781445285
 30
0.0
 11
98.999975
 21
85.499975
 31
0.0
  0
LINE
  5
DB
  8
0
  6
SLD-実線
 62
     7
 10
98.999975
 20
83.499975
 30
0.0
 11
98.999975
 21
85.499975
 31
0.0
  0
LINE
  5
DC
  8
0
  6
SLD-実線
 62
     7
 10
61.0218054715
 20
85.4781445285
 30
0.0
 11
61.0218054715
 21
83.5218054715
 31
0.0
  0
LINE
  5
DD
  8
0
  6
SLD-実線
 62
     7
 10
60.999975
 20
83.499975
 30
0.0
 11
60.999975
 21
85.499975
 31
0.0
  0
LINE
  5
DE
  8
0
  6
SLD-実線
 62
     7
 10
61.0218054715
 20
114.5218054715
 30
0.0
 11
60.999975
 21
114.499975
 31
0.0
  0
LINE
  5
DF
  8
0
  6
SLD-実線
 62
     7
 10
61.0218054715
 20
114.5218054715
 30
0.0
 11
63.9781445285
 21
114.5218054715
 31
0.0
  0
LINE
  5
E0
  8
0
  6
SLD-実線
 62
     7
 10
63.9781445285
 20
114.5218054715
 30
0.0
 11
63.999975
 21
114.499975
 31
0.0
  0
LINE
  5
E1
  8
0
  6
SLD-実線
 62
     7
 10
60.999975
 20
114.499975
 30
0.0
 11
63.999975
 21
114.499975
 31
0.0
  0
LINE
  5
E2
  8
0
  6
SLD-実線
 62
     7
 10
63.9781445285
 20
114.5218054715
 30
0.0
 11
63.9781445285
 21
116.4781445285
 31
0.0
  0
LINE
  5
E3
  8
0
  6
SLD-実線
 62
     7
 10
63.9781445285
 20
116.4781445285
 30
0.0
 11
63.999975
 21
116.499975
 31
0.0
  0
LINE
  5
E4
  8
0
  6
SLD-実線
 62
     7
 10
63.999975
 20
114.499975
 30
0.0
 11
63.999975
 21
116.499975
 31
0.0
  0
LINE
  5
E5
  8
0
  6
SLD-実線
 62
     7
 10
63.9781445285
 20
116.4781445285
 30
0.0
 11
61.0218054715
 21
116.4781445285
 31
0.0
  0
LINE
  5
E6
  8
0
  6
SLD-実線
 62
     7
 10
61.0218054715
 20
116.4781445285
 30
0.0
 11
60.999975
 21
116.499975
 31
0.0
  0
LINE
  5
E7
  8
0
  6
SLD-実線
 62
     7
 10
60.999975
 20
116.499975
 30
0.0
 11
63.999975
 21
116.499975
 31
0.0
  0
LINE
  5
E8
  8
0
  6
SLD-実線
 62
     7
 10
61.0218054715
 20
116.4781445285
 30
0.0
 11
61.0218054715
 21
114.5218054715
 31
0.0
  0
LINE
  5
E9
  8
0
  6
SLD-実線
 62
     7
 10
60.999975
 20
116.499975
 30
0.0
 11
60.999975
 21
114.499975
 31
0.0
  0
LINE
  5
EA
  8
0
  6
SLD-実線
 62
     7
 10
96.0218054715
 20
85.4781445285
 30
0.0
 11
95.999975
 21
85.499975
 31
0.0
  0
LINE
  5
EB
  8
0
  6
SLD-実線
 62
     7
 10
98.999975
 20
85.499975
 30
0.0
 11
95.999975
 21
85.499975
 31
0.0
  0
LINE
  5
EC
  8
0
  6
SLD-実線
 62
     7
 10
95.999975
 20
85.499975
 30
0.0
 11
95.999975
 21
83.499975
 31
0.0
  0
LINE
  5
ED
  8
0
  6
SLD-実線
 62
     7
 10
63.999975
 20
116.499975
 30
0.0
 11
95.999975
 21
116.499975
 31
0.0
  0
LINE
  5
EE
  8
0
  6
SLD-実線
 62
     7
 10
95.999975
 20
83.499975
 30
0.0
 11
63.999975
 21
83.499975
 31
0.0
  0
LINE
  5
EF
  8
0
  6
SLD-実線
 62
     7
 10
60.999975
 20
85.499975
 30
0.0
 11
60.999975
 21
114.499975
 31
0.0
  0
LINE
  5
F0
  8
0
  6
SLD-実線
 62
     7
 10
98.999975
 20
114.499975
 30
0.0
 11
98.999975
 21
85.499975
 31
0.0
  0
TEXT
  5
F1
  8
0
  6
CONTINUOUS
 62
   114
 10
80.0
 20
67.6662005899
 30
0.0
 40
2.38125
  1
(C)Panasonic Corporation 2016  Apr.,2016  ahe4291.dxf
 41
0.6603773585
 11
80.0
 21
66.8250000675
 31
0.0
 73
     1
  0
ENDSEC
  0
EOF
