  0
SECTION
  2
HEADER
  9
$ACADVER
  1
AC1015
  9
$ACADMAINTVER
 70
     6
  9
$DWGCODEPAGE
  3
ANSI_932
  9
$INSBASE
 10
0.0
 20
0.0
 30
0.0
  9
$EXTMIN
 10
10.0
 20
10.0
 30
0.0
  9
$EXTMAX
 10
220.0
 20
307.0
 30
0.0
  9
$LIMMIN
 10
10.0
 20
10.0
  9
$LIMMAX
 10
220.0
 20
307.0
  9
$ORTHOMODE
 70
     0
  9
$REGENMODE
 70
     1
  9
$FILLMODE
 70
     1
  9
$QTEXTMODE
 70
     0
  9
$MIRRTEXT
 70
     1
  9
$LTSCALE
 40
1.0
  9
$ATTMODE
 70
     1
  9
$TEXTSIZE
 40
4.16718
  9
$TRACEWID
 40
0.05
  9
$TEXTSTYLE
  7
MX_NOTE_STANDARD
  9
$CLAYER
  8
0
  9
$CELTYPE
  6
CONTINUOUS
  9
$CECOLOR
 62
   256
  9
$CELTSCALE
 40
1.0
  9
$DISPSILH
 70
     0
  9
$DIMSCALE
 40
1.0
  9
$DIMASZ
 40
2.5
  9
$DIMEXO
 40
0.0
  9
$DIMDLI
 40
3.75
  9
$DIMRND
 40
0.0
  9
$DIMDLE
 40
0.0
  9
$DIMEXE
 40
2.54
  9
$DIMTP
 40
0.0
  9
$DIMTM
 40
0.0
  9
$DIMTXT
 40
2.54
  9
$DIMCEN
 40
2.5
  9
$DIMTSZ
 40
0.0
  9
$DIMTOL
 70
     0
  9
$DIMLIM
 70
     0
  9
$DIMTIH
 70
     0
  9
$DIMTOH
 70
     0
  9
$DIMSE1
 70
     0
  9
$DIMSE2
 70
     0
  9
$DIMTAD
 70
     1
  9
$DIMZIN
 70
     8
  9
$DIMBLK
  1

  9
$DIMASO
 70
     1
  9
$DIMSHO
 70
     1
  9
$DIMPOST
  1

  9
$DIMAPOST
  1

  9
$DIMALT
 70
     0
  9
$DIMALTD
 70
     4
  9
$DIMALTF
 40
0.03937
  9
$DIMLFAC
 40
1.0
  9
$DIMTOFL
 70
     1
  9
$DIMTVP
 40
0.0
  9
$DIMTIX
 70
     0
  9
$DIMSOXD
 70
     0
  9
$DIMSAH
 70
     1
  9
$DIMBLK1
  1
_OPEN30
  9
$DIMBLK2
  1
_OPEN30
  9
$DIMSTYLE
  2
MXDIMSTYLE
  9
$DIMCLRD
 70
     0
  9
$DIMCLRE
 70
     0
  9
$DIMCLRT
 70
     0
  9
$DIMTFAC
 40
1.0
  9
$DIMGAP
 40
0.64
  9
$DIMJUST
 70
     0
  9
$DIMSD1
 70
     0
  9
$DIMSD2
 70
     0
  9
$DIMTOLJ
 70
     0
  9
$DIMTZIN
 70
     0
  9
$DIMALTZ
 70
     0
  9
$DIMALTTZ
 70
     0
  9
$DIMUPT
 70
     0
  9
$DIMDEC
 70
     2
  9
$DIMTDEC
 70
     2
  9
$DIMALTU
 70
     2
  9
$DIMALTTD
 70
     4
  9
$DIMTXSTY
  7
MX_NOTE_STANDARD
  9
$DIMAUNIT
 70
     0
  9
$DIMADEC
 70
     0
  9
$DIMALTRND
 40
0.0
  9
$DIMAZIN
 70
     0
  9
$DIMDSEP
 70
    46
  9
$DIMATFIT
 70
     3
  9
$DIMFRAC
 70
     0
  9
$DIMLDRBLK
  1
_OPEN30
  9
$DIMLUNIT
 70
     2
  9
$DIMLWD
 70
    -2
  9
$DIMLWE
 70
    -2
  9
$DIMTMOVE
 70
     0
  9
$LUNITS
 70
     2
  9
$LUPREC
 70
     4
  9
$SKETCHINC
 40
0.1
  9
$FILLETRAD
 40
0.0
  9
$AUNITS
 70
     0
  9
$AUPREC
 70
     0
  9
$MENU
  1
acad
  9
$ELEVATION
 40
0.0
  9
$PELEVATION
 40
0.0
  9
$THICKNESS
 40
0.0
  9
$LIMCHECK
 70
     0
  9
$CHAMFERA
 40
0.0
  9
$CHAMFERB
 40
0.0
  9
$CHAMFERC
 40
0.0
  9
$CHAMFERD
 40
0.0
  9
$SKPOLY
 70
     0
  9
$TDCREATE
 40
2455974.454432870
  9
$TDUCREATE
 40
0.000000000
  9
$TDUPDATE
 40
2455974.454432870
  9
$TDUUPDATE
 40
0.000000000
  9
$TDINDWG
 40
0.0000000000
  9
$TDUSRTIMER
 40
0.0000000000
  9
$USRTIMER
 70
     1
  9
$ANGBASE
 50
0.0
  9
$ANGDIR
 70
     0
  9
$PDMODE
 70
     0
  9
$PDSIZE
 40
0.0
  9
$PLINEWID
 40
0.0
  9
$SPLFRAME
 70
     0
  9
$SPLINETYPE
 70
     6
  9
$SPLINESEGS
 70
     8
  9
$HANDSEED
  5
103
  9
$SURFTAB1
 70
     6
  9
$SURFTAB2
 70
     6
  9
$SURFTYPE
 70
     6
  9
$SURFU
 70
     6
  9
$SURFV
 70
     6
  9
$UCSBASE
  2

  9
$UCSNAME
  2

  9
$UCSORG
 10
0.0
 20
0.0
 30
0.0
  9
$UCSXDIR
 10
1.0
 20
0.0
 30
0.0
  9
$UCSYDIR
 10
0.0
 20
1.0
 30
0.0
  9
$UCSORTHOREF
  2

  9
$UCSORTHOVIEW
 70
     0
  9
$UCSORGTOP
 10
0.0
 20
0.0
 30
0.0
  9
$UCSORGBOTTOM
 10
0.0
 20
0.0
 30
0.0
  9
$UCSORGLEFT
 10
0.0
 20
0.0
 30
0.0
  9
$UCSORGRIGHT
 10
0.0
 20
0.0
 30
0.0
  9
$UCSORGFRONT
 10
0.0
 20
0.0
 30
0.0
  9
$UCSORGBACK
 10
0.0
 20
0.0
 30
0.0
  9
$PUCSBASE
  2

  9
$PUCSNAME
  2

  9
$PUCSORG
 10
0.0
 20
0.0
 30
0.0
  9
$PUCSXDIR
 10
1.0
 20
0.0
 30
0.0
  9
$PUCSYDIR
 10
0.0
 20
1.0
 30
0.0
  9
$PUCSORTHOREF
  2

  9
$PUCSORTHOVIEW
 70
     0
  9
$PUCSORGTOP
 10
0.0
 20
0.0
 30
0.0
  9
$PUCSORGBOTTOM
 10
0.0
 20
0.0
 30
0.0
  9
$PUCSORGLEFT
 10
0.0
 20
0.0
 30
0.0
  9
$PUCSORGRIGHT
 10
0.0
 20
0.0
 30
0.0
  9
$PUCSORGFRONT
 10
0.0
 20
0.0
 30
0.0
  9
$PUCSORGBACK
 10
0.0
 20
0.0
 30
0.0
  9
$USERI1
 70
     0
  9
$USERI2
 70
     0
  9
$USERI3
 70
     0
  9
$USERI4
 70
     0
  9
$USERI5
 70
     0
  9
$USERR1
 40
0.0
  9
$USERR2
 40
0.0
  9
$USERR3
 40
0.0
  9
$USERR4
 40
0.0
  9
$USERR5
 40
0.0
  9
$WORLDVIEW
 70
     1
  9
$SHADEDGE
 70
     3
  9
$SHADEDIF
 70
    70
  9
$TILEMODE
 70
     1
  9
$MAXACTVP
 70
    16
  9
$PINSBASE
 10
0.0
 20
0.0
 30
0.0
  9
$PLIMCHECK
 70
     0
  9
$PEXTMIN
 10
1.000000E+20
 20
1.000000E+20
 30
1.000000E+20
  9
$PEXTMAX
 10
-1.000000E+20
 20
-1.000000E+20
 30
-1.000000E+20
  9
$PLIMMIN
 10
0.0
 20
0.0
  9
$PLIMMAX
 10
12.0
 20
9.0
  9
$UNITMODE
 70
     0
  9
$VISRETAIN
 70
     0
  9
$PLINEGEN
 70
     1
  9
$PSLTSCALE
 70
     0
  9
$TREEDEPTH
 70
  3020
  9
$CMLSTYLE
  2
Standard
  9
$CMLJUST
 70
     0
  9
$CMLSCALE
 40
1.0
  9
$PROXYGRAPHICS
 70
     0
  9
$MEASUREMENT
 70
     1
  9
$CELWEIGHT
370
     0
  9
$ENDCAPS
280
     0
  9
$JOINSTYLE
280
     0
  9
$LWDISPLAY
290
     0
  9
$INSUNITS
 70
     0
  9
$HYPERLINKBASE
  1

  9
$STYLESHEET
  1

  9
$XEDIT
290
     1
  9
$CEPSNTYPE
380
     0
  9
$PSTYLEMODE
290
     1
  9
$FINGERPRINTGUID
  2

  9
$VERSIONGUID
  2

  9
$EXTNAMES
290
     1
  9
$PSVPSCALE
 40
0.0
  0
ENDSEC
  0
SECTION
  2
CLASSES
  0
CLASS
  1
LWPOLYLINE
  2
AcDbPolyline
  3
AutoCAD 2000
 90
        0
280
     0
281
     1
  0
CLASS
  1
IMAGE
  2
AcDbRasterImage
  3
ISM
 90
      127
280
     0
281
     1
  0
CLASS
  1
OLE2FRAME
  2
AcDbOle2Frame
  3
AutoCAD 2000
 90
        0
280
     0
281
     1
  0
CLASS
  1
HATCH
  2
AcDbHatch
  3
AutoCAD 2000
 90
        0
280
     0
281
     1
  0
CLASS
  1
DICTIONARYVAR
  2
AcDbDictionaryVar
  3
AutoCAD 2000
 90
        0
280
     0
281
     0
  0
CLASS
  1
RASTERVARIABLES
  2
AcDbRasterVariables
  3
ISM
 90
        0
280
     0
281
     0
  0
CLASS
  1
IMAGEDEF
  2
AcDbRasterImageDef
  3
ISM
 90
        0
280
     0
281
     0
  0
CLASS
  1
IMAGEDEF_REACTOR
  2
AcDbRasterImageDefReactor
  3
ISM
 90
        1
280
     0
281
     0
  0
CLASS
  1
IDBUFFER
  2
AcDbIdBuffer
  3
AutoCAD 2000
 90
        0
280
     0
281
     0
  0
CLASS
  1
SPATIAL_FILTER
  2
AcDbSpatialFilter
  3
AutoCAD 2000
 90
        0
280
     0
281
     0
  0
CLASS
  1
XRECORD
  2
AcDbXrecord
  3
AutoCAD 2000
 90
        0
280
     0
281
     0
  0
CLASS
  1
SORTENTSTABLE
  2
AcDbSortentsTable
  3
AutoCAD 2000
 90
        0
280
     0
281
     0
  0
CLASS
  1
LAYER_INDEX
  2
AcDbLayerIndex
  3
AutoCAD 2000
 90
        0
280
     0
281
     0
  0
CLASS
  1
SPATIAL_INDEX
  2
AcDbSpatialIndex
  3
AutoCAD 2000
 90
        0
280
     0
281
     0
  0
CLASS
  1
OBJECT_PTR
  2
CAseDLPNTableRecord
  3
"ASE-LPNTableRecord"
 90
        1
280
     0
281
     0
  0
CLASS
  1
LAYOUT
  2
AcDbLayout
  3
AutoCAD 2000
 90
        0
280
     0
281
     0
  0
CLASS
  1
PLOTSETTINGS
  2
AcDbPlotSettings
  3
AutoCAD 2000
 90
        0
280
     0
281
     0
  0
CLASS
  1
ACDBDICTIONARYWDFLT
  2
AcDbDictionaryWithDefault
  3
AutoCAD 2000
 90
        0
280
     0
281
     0
  0
CLASS
  1
ACDBPLACEHOLDER
  2
AcDbPlaceHolder
  3
AutoCAD 2000
 90
        0
280
     0
281
     0
  0
ENDSEC
  0
SECTION
  2
TABLES
  0
TABLE
  2
VPORT
  5
7
100
AcDbSymbolTable
 70
     1
  0
VPORT
  5
15
100
AcDbSymbolTableRecord
100
AcDbViewportTableRecord
  2
*ACTIVE
 70
     0
 10
0.0
 20
0.0
 11
1.0
 21
1.0
 12
115.0
 22
158.5
 13
0.0
 23
0.0
 14
1.0
 24
1.0
 15
0.0
 25
0.0
 16
0.0
 26
0.0
 36
1.0
 17
0.0
 27
0.0
 37
0.0
 40
299.97
 41
1.732051
 42
50.0
 43
0.0
 44
0.0
 50
0.0
 51
0.0
 71
     0
 72
   100
 73
     1
 74
     1
 75
     0
 76
     0
 77
     0
 78
     0
281
     0
 65
     0
110
0.0
120
0.0
130
0.0
111
1.0
121
0.0
131
0.0
112
0.0
122
1.0
132
0.0
345
0
346
0
 79
     0
146
0.0
  0
ENDTAB
  0
TABLE
  2
LTYPE
  5
4
100
AcDbSymbolTable
 70
     4
  0
LTYPE
  5
11
100
AcDbSymbolTableRecord
100
AcDbLinetypeTableRecord
  2
BYBLOCK
 70
    64
  3

 72
    65
 73
     0
 40
0.0
  0
LTYPE
  5
12
100
AcDbSymbolTableRecord
100
AcDbLinetypeTableRecord
  2
BYLAYER
 70
    64
  3

 72
    65
 73
     0
 40
0.0
  0
LTYPE
  5
13
100
AcDbSymbolTableRecord
100
AcDbLinetypeTableRecord
  2
CONTINUOUS
 70
    64
  3
Solid line
 72
    65
 73
     0
 40
0.0
  0
LTYPE
  5
100
100
AcDbSymbolTableRecord
100
AcDbLinetypeTableRecord
  2
NON_PLOTING
 70
     0
  3
Solid line
 72
    65
 73
     0
 40
0.0
  0
ENDTAB
  0
TABLE
  2
LAYER
  5
2
100
AcDbSymbolTable
 70
     2
  0
LAYER
  5
14
100
AcDbSymbolTableRecord
100
AcDbLayerTableRecord
  2
0
 70
     0
 62
     7
  6
CONTINUOUS
290
     1
370
    -3
390
1D
  0
LAYER
  5
23
100
AcDbSymbolTableRecord
100
AcDbLayerTableRecord
  2
DEFPOINTS
 70
     0
 62
     7
  6
CONTINUOUS
290
     0
370
    -3
390
1D
  0
ENDTAB
  0
TABLE
  2
STYLE
  5
3
100
AcDbSymbolTable
 70
     1
  0
STYLE
  5
17
100
AcDbSymbolTableRecord
100
AcDbTextStyleTableRecord
  2
MX_NOTE_STANDARD
 70
     0
 40
0.0
 41
1.0
 50
0.0
 71
     0
 42
4.16718
  3
txt.shx
  4
extfont.shx
  0
ENDTAB
  0
TABLE
  2
VIEW
  5
5
100
AcDbSymbolTable
 70
     0
  0
ENDTAB
  0
TABLE
  2
UCS
  5
6
100
AcDbSymbolTable
 70
     0
  0
ENDTAB
  0
TABLE
  2
APPID
  5
8
100
AcDbSymbolTable
 70
     1
  0
APPID
  5
16
100
AcDbSymbolTableRecord
100
AcDbRegAppTableRecord
  2
ACAD
 70
     0
  0
ENDTAB
  0
TABLE
  2
DIMSTYLE
  5
9
100
AcDbSymbolTable
 70
     1
100
AcDbDimStyleTable
 71
     0
  0
DIMSTYLE
105
18
100
AcDbSymbolTableRecord
100
AcDbDimStyleTableRecord
  2
MXDIMSTYLE
 70
     0
  3

  4

 40
1.0
 41
2.5
 42
0.0
 43
3.75
 44
2.54
 45
0.0
 46
0.0
 47
0.0
 48
0.0
 71
     0
 72
     0
 73
     0
 74
     0
 75
     0
 76
     0
 77
     1
 78
     8
 79
     0
140
2.54
141
2.5
142
0.0
143
0.03937
144
1.0
145
0.0
146
1.0
147
0.64
148
0.0
170
     0
171
     4
172
     1
173
     1
174
     0
175
     0
176
     0
177
     0
178
     0
179
     0
271
     2
272
     2
273
     2
274
     4
275
     0
276
     0
277
     2
278
    46
279
     0
280
     0
281
     0
282
     0
283
     0
284
     0
285
     0
286
     0
288
     0
289
     3
340
17
341
26
342
0
343
26
344
26
371
    -2
372
    -2
  0
ENDTAB
  0
TABLE
  2
BLOCK_RECORD
  5
1
100
AcDbSymbolTable
 70
     3
  0
BLOCK_RECORD
  5
A
100
AcDbSymbolTableRecord
100
AcDbBlockTableRecord
  2
*MODEL_SPACE
340
20
  0
BLOCK_RECORD
  5
B
100
AcDbSymbolTableRecord
100
AcDbBlockTableRecord
  2
*PAPER_SPACE
340
21
  0
BLOCK_RECORD
  5
24
100
AcDbSymbolTableRecord
100
AcDbBlockTableRecord
  2
$MODEL_SPACE
340
0
  0
BLOCK_RECORD
  5
25
100
AcDbSymbolTableRecord
100
AcDbBlockTableRecord
  2
$PAPER_SPACE
340
0
  0
BLOCK_RECORD
  5
26
100
AcDbSymbolTableRecord
100
AcDbBlockTableRecord
  2
_OPEN30
340
0
  0
ENDTAB
  0
ENDSEC
  0
SECTION
  2
BLOCKS
  0
BLOCK
  5
D
100
AcDbEntity
  8
0
390
0
100
AcDbBlockBegin
  2
*MODEL_SPACE
 70
     0
 10
0.0
 20
0.0
 30
0.0
  3
*MODEL_SPACE
  1

  0
ENDBLK
  5
E
100
AcDbEntity
  8
0
390
0
100
AcDbBlockEnd
  0
BLOCK
  5
F
100
AcDbEntity
 67
     1
  8
0
390
0
100
AcDbBlockBegin
  2
*PAPER_SPACE
 70
     0
 10
0.0
 20
0.0
 30
0.0
  3
*PAPER_SPACE
  1

  0
ENDBLK
  5
10
100
AcDbEntity
 67
     1
  8
0
390
0
100
AcDbBlockEnd
  0
BLOCK
  5
2C
100
AcDbEntity
  8
0
370
    -2
390
0
100
AcDbBlockBegin
  2
$MODEL_SPACE
 70
     0
 10
0.0
 20
0.0
 30
0.0
  3
$MODEL_SPACE
  1

  0
ENDBLK
  5
2D
100
AcDbEntity
  8
0
370
    -2
390
0
100
AcDbBlockEnd
  0
BLOCK
  5
2E
100
AcDbEntity
  8
0
370
    -2
390
0
100
AcDbBlockBegin
  2
$PAPER_SPACE
 70
     0
 10
0.0
 20
0.0
 30
0.0
  3
$PAPER_SPACE
  1

  0
ENDBLK
  5
2F
100
AcDbEntity
  8
0
370
    -2
390
0
100
AcDbBlockEnd
  0
BLOCK
  5
27
100
AcDbEntity
  8
0
370
    -2
390
0
  6
ByBlock
 62
     0
100
AcDbBlockBegin
  2
_OPEN30
 70
     2
 10
0.0
 20
0.0
 30
0.0
  3
_OPEN30
  1

  0
LINE
  5
28
100
AcDbEntity
  8
0
370
    -2
390
0
  6
ByBlock
 62
     0
100
AcDbLine
 10
-1.0
 20
0.267949
 30
0.0
 11
0.0
 21
0.0
 31
0.0
  0
LINE
  5
29
100
AcDbEntity
  8
0
370
    -2
390
0
  6
ByBlock
 62
     0
100
AcDbLine
 10
0.0
 20
0.0
 30
0.0
 11
-1.0
 21
-0.267949
 31
0.0
  0
LINE
  5
2A
100
AcDbEntity
  8
0
370
    -2
390
0
  6
ByBlock
 62
     0
100
AcDbLine
 10
0.0
 20
0.0
 30
0.0
 11
-1.0
 21
0.0
 31
0.0
  0
ENDBLK
  5
2B
100
AcDbEntity
  8
0
370
    -2
390
0
  6
ByBlock
 62
     0
100
AcDbBlockEnd
  0
ENDSEC
  0
SECTION
  2
ENTITIES
  0
LINE
  5
30
100
AcDbEntity
  8
0
390
0
  6
CONTINUOUS
 62
     3
100
AcDbLine
 10
142.5
 20
60.0
 30
0.0
 11
142.5
 21
40.0
 31
0.0
  0
LINE
  5
31
100
AcDbEntity
  8
0
390
0
  6
CONTINUOUS
 62
     3
100
AcDbLine
 10
21.5
 20
296.0
 30
0.0
 11
21.5
 21
21.0
 31
0.0
  0
LINE
  5
32
100
AcDbEntity
  8
0
390
0
  6
CONTINUOUS
 62
     3
100
AcDbLine
 10
208.5
 20
296.0
 30
0.0
 11
21.5
 21
296.0
 31
0.0
  0
LINE
  5
33
100
AcDbEntity
  8
0
390
0
  6
CONTINUOUS
 62
     3
100
AcDbLine
 10
208.5
 20
21.0
 30
0.0
 11
208.5
 21
296.0
 31
0.0
  0
LINE
  5
34
100
AcDbEntity
  8
0
390
0
  6
CONTINUOUS
 62
     3
100
AcDbLine
 10
21.5
 20
21.0
 30
0.0
 11
208.5
 21
21.0
 31
0.0
  0
LINE
  5
35
100
AcDbEntity
  8
0
390
0
  6
CONTINUOUS
 62
     3
100
AcDbLine
 10
175.5
 20
53.0
 30
0.0
 11
175.5
 21
46.5
 31
0.0
  0
LINE
  5
36
100
AcDbEntity
  8
0
390
0
  6
CONTINUOUS
 62
     3
100
AcDbLine
 10
142.5
 20
46.5
 30
0.0
 11
208.5
 21
46.5
 31
0.0
  0
LINE
  5
37
100
AcDbEntity
  8
0
390
0
  6
CONTINUOUS
 62
     3
100
AcDbLine
 10
21.5
 20
40.0
 30
0.0
 11
208.5
 21
40.0
 31
0.0
  0
LINE
  5
38
100
AcDbEntity
  8
0
390
0
  6
CONTINUOUS
 62
     3
100
AcDbLine
 10
21.5
 20
53.0
 30
0.0
 11
208.5
 21
53.0
 31
0.0
  0
LINE
  5
39
100
AcDbEntity
  8
0
390
0
  6
CONTINUOUS
 62
     3
100
AcDbLine
 10
21.5
 20
60.0
 30
0.0
 11
208.5
 21
60.0
 31
0.0
  0
LINE
  5
3A
100
AcDbEntity
  8
0
390
0
  6
CONTINUOUS
 62
   110
100
AcDbLine
 10
208.5
 20
296.0
 30
0.0
 11
21.5
 21
296.0
 31
0.0
  0
MTEXT
  5
3B
100
AcDbEntity
  8
0
390
0
  6
CONTINUOUS
 62
     7
100
AcDbMText
 10
144.346352
 20
51.643908
 30
0.0
 40
4.0
 41
0.0
 71
     1
 72
     1
  1
\W0.714;\A1;Scale 1:1
 73
     1
 44
1.0
  0
MTEXT
  5
3C
100
AcDbEntity
  8
0
390
0
  6
CONTINUOUS
 62
     7
100
AcDbMText
 10
177.126707
 20
51.643908
 30
0.0
 40
4.0
 41
0.0
 71
     1
 72
     1
  1
\W0.714;\A1;Unit mm
 73
     1
 44
1.0
  0
MTEXT
  5
3D
100
AcDbEntity
  8
0
390
0
  6
CONTINUOUS
 62
     7
100
AcDbMText
 10
23.576668
 20
58.143908
 30
0.0
 40
4.0
 41
0.0
 71
     1
 72
     1
  1
\W0.725;\A1;Parts No. AG1051
 73
     1
 44
1.0
  0
MTEXT
  5
3E
100
AcDbEntity
  8
0
390
0
  6
CONTINUOUS
 62
     7
100
AcDbMText
 10
23.63935
 20
51.518341
 30
0.0
 40
4.0
 41
0.0
 71
     1
 72
     1
  1
\W0.819;\A1;Name SF Relay(2a2b)\P             (Double Contact)
 73
     1
 44
1.0
  0
MTEXT
  5
3F
100
AcDbEntity
  8
0
390
0
  6
CONTINUOUS
 62
   255
100
AcDbMText
 10
143.985667
 20
41.143908
 30
0.0
 40
4.0
 41
0.0
 71
     7
 72
     1
  1
\W0.512;\A1;Ｔｏｌｅｒａｎｃｅ
 73
     1
 44
1.0
  0
LINE
  5
40
100
AcDbEntity
  8
0
390
0
  6
CONTINUOUS
 62
   110
100
AcDbLine
 10
176.003753
 20
42.878838
 30
0.0
 11
199.96732
 21
42.878838
 31
0.0
  0
MTEXT
  5
41
100
AcDbEntity
  8
0
390
0
  6
CONTINUOUS
 62
   110
100
AcDbMText
 10
66.665763
 20
179.206536
 30
0.0
 40
1.2
 41
0.0
 71
     1
 72
     1
  1
\A1;9
 73
     1
 44
1.0
  0
MTEXT
  5
42
100
AcDbEntity
  8
0
390
0
  6
CONTINUOUS
 62
   110
100
AcDbMText
 10
77.482429
 20
179.206582
 30
0.0
 40
1.2
 41
0.0
 71
     1
 72
     1
  1
\W1.333;\A1;10
 73
     1
 44
1.0
  0
MTEXT
  5
43
100
AcDbEntity
  8
0
390
0
  6
CONTINUOUS
 62
   110
100
AcDbMText
 10
92.515732
 20
179.206582
 30
0.0
 40
1.2
 41
0.0
 71
     1
 72
     1
  1
\W1.500;\A1;11
 73
     1
 44
1.0
  0
MTEXT
  5
44
100
AcDbEntity
  8
0
390
0
  6
CONTINUOUS
 62
   110
100
AcDbMText
 10
104.005705
 20
179.206582
 30
0.0
 40
1.2
 41
0.0
 71
     1
 72
     1
  1
\W1.200;\A1;12
 73
     1
 44
1.0
  0
MTEXT
  5
45
100
AcDbEntity
  8
0
390
0
  6
CONTINUOUS
 62
   110
100
AcDbMText
 10
104.765692
 20
197.596551
 30
0.0
 40
1.2
 41
0.0
 71
     1
 72
     1
  1
\A1;8
 73
     1
 44
1.0
  0
MTEXT
  5
46
100
AcDbEntity
  8
0
390
0
  6
CONTINUOUS
 62
   110
100
AcDbMText
 10
93.215735
 20
197.596551
 30
0.0
 40
1.2
 41
0.0
 71
     1
 72
     1
  1
\A1;7
 73
     1
 44
1.0
  0
MTEXT
  5
47
100
AcDbEntity
  8
0
390
0
  6
CONTINUOUS
 62
   110
100
AcDbMText
 10
78.21575
 20
197.596566
 30
0.0
 40
1.2
 41
0.0
 71
     1
 72
     1
  1
\A1;6
 73
     1
 44
1.0
  0
MTEXT
  5
48
100
AcDbEntity
  8
0
390
0
  6
CONTINUOUS
 62
   110
100
AcDbMText
 10
66.665763
 20
197.601556
 30
0.0
 40
1.2
 41
0.0
 71
     1
 72
     1
  1
\A1;5
 73
     1
 44
1.0
  0
MTEXT
  5
49
100
AcDbEntity
  8
0
390
0
  6
CONTINUOUS
 62
   110
100
AcDbMText
 10
65.090756
 20
191.551574
 30
0.0
 40
1.5
 41
0.0
 71
     1
 72
     1
  1
\W1.500;\A1;1
 73
     1
 44
1.0
  0
MTEXT
  5
4A
100
AcDbEntity
  8
0
390
0
  6
CONTINUOUS
 62
   110
100
AcDbMText
 10
64.965741
 20
185.551574
 30
0.0
 40
1.5
 41
0.0
 71
     1
 72
     1
  1
\A1;2
 73
     1
 44
1.0
  0
ARC
  5
4B
100
AcDbEntity
  8
0
390
0
  6
CONTINUOUS
 62
     3
100
AcDbCircle
 10
98.61575
 20
257.301544
 30
0.0
 40
0.5
100
AcDbArc
 50
89.999982
 51
180.001767
  0
ARC
  5
4C
100
AcDbEntity
  8
0
390
0
  6
CONTINUOUS
 62
     3
100
AcDbCircle
 10
93.61575
 20
257.301544
 30
0.0
 40
0.5
100
AcDbArc
 50
359.998251
 51
89.999982
  0
ARC
  5
4D
100
AcDbEntity
  8
0
390
0
  6
CONTINUOUS
 62
     3
100
AcDbCircle
 10
60.465772
 20
176.30159
 30
0.0
 40
1.0
100
AcDbArc
 50
179.999964
 51
269.999454
  0
ARC
  5
4E
100
AcDbEntity
  8
0
390
0
  6
CONTINUOUS
 62
     3
100
AcDbCircle
 10
60.465772
 20
199.301544
 30
0.0
 40
1.0
100
AcDbArc
 50
90.000419
 51
179.999964
  0
ARC
  5
4F
100
AcDbEntity
  8
0
390
0
  6
CONTINUOUS
 62
     3
100
AcDbCircle
 10
111.765698
 20
199.301513
 30
0.0
 40
1.0
100
AcDbArc
 50
0.000036
 51
89.999982
  0
ARC
  5
50
100
AcDbEntity
  8
0
390
0
  6
CONTINUOUS
 62
     3
100
AcDbCircle
 10
111.765683
 20
176.301574
 30
0.0
 40
1.0
100
AcDbArc
 50
269.999526
 51
359.999909
  0
ARC
  5
51
100
AcDbEntity
  8
0
390
0
  6
CONTINUOUS
 62
     3
100
AcDbCircle
 10
60.965802
 20
176.80159
 30
0.0
 40
0.7
100
AcDbArc
 50
179.999964
 51
269.999837
  0
ARC
  5
52
100
AcDbEntity
  8
0
390
0
  6
CONTINUOUS
 62
     3
100
AcDbCircle
 10
111.265683
 20
176.80159
 30
0.0
 40
0.7
100
AcDbArc
 50
269.999909
 51
359.999909
  0
ARC
  5
53
100
AcDbEntity
  8
0
390
0
  6
CONTINUOUS
 62
     3
100
AcDbCircle
 10
111.265698
 20
198.801544
 30
0.0
 40
0.7
100
AcDbArc
 50
0.000091
 51
89.999982
  0
ARC
  5
54
100
AcDbEntity
  8
0
390
0
  6
CONTINUOUS
 62
     3
100
AcDbCircle
 10
60.965787
 20
198.801559
 30
0.0
 40
0.7
100
AcDbArc
 50
89.999982
 51
179.999964
  0
ARC
  5
55
100
AcDbEntity
  8
0
390
0
  6
CONTINUOUS
 62
     3
100
AcDbCircle
 10
158.132871
 20
243.301544
 30
0.0
 40
2.0
100
AcDbArc
 50
228.589729
 51
311.409624
  0
ARC
  5
56
100
AcDbEntity
  8
0
390
0
  6
CONTINUOUS
 62
     3
100
AcDbCircle
 10
145.78288
 20
243.301544
 30
0.0
 40
2.0
100
AcDbArc
 50
228.590439
 51
311.409624
  0
ARC
  5
57
100
AcDbEntity
  8
0
390
0
  6
CONTINUOUS
 62
     3
100
AcDbCircle
 10
164.157865
 20
257.501541
 30
0.0
 40
0.3
100
AcDbArc
 50
359.999982
 51
89.999873
  0
ARC
  5
58
100
AcDbEntity
  8
0
390
0
  6
CONTINUOUS
 62
     3
100
AcDbCircle
 10
139.757932
 20
257.501541
 30
0.0
 40
0.3
100
AcDbArc
 50
89.999927
 51
179.999909
  0
ARC
  5
59
100
AcDbEntity
  8
0
390
0
  6
CONTINUOUS
 62
     3
100
AcDbCircle
 10
83.615705
 20
256.801544
 30
0.0
 40
1.0
100
AcDbArc
 50
359.999945
 51
89.999982
  0
ARC
  5
5A
100
AcDbEntity
  8
0
390
0
  6
CONTINUOUS
 62
     3
100
AcDbCircle
 10
88.615705
 20
256.801559
 30
0.0
 40
1.0
100
AcDbArc
 50
89.999982
 51
180.000073
  0
ARC
  5
5B
100
AcDbEntity
  8
0
390
0
  6
CONTINUOUS
 62
     3
100
AcDbCircle
 10
105.165708
 20
238.801544
 30
0.0
 40
0.5
100
AcDbArc
 50
180.000036
 51
359.999964
  0
ARC
  5
5C
100
AcDbEntity
  8
0
390
0
  6
CONTINUOUS
 62
     3
100
AcDbCircle
 10
92.465726
 20
238.801544
 30
0.0
 40
0.5
100
AcDbArc
 50
180.000036
 51
359.999964
  0
ARC
  5
5D
100
AcDbEntity
  8
0
390
0
  6
CONTINUOUS
 62
     3
100
AcDbCircle
 10
79.765744
 20
238.801559
 30
0.0
 40
0.5
100
AcDbArc
 50
180.000036
 51
359.999964
  0
ARC
  5
5E
100
AcDbEntity
  8
0
390
0
  6
CONTINUOUS
 62
     3
100
AcDbCircle
 10
67.065747
 20
238.801559
 30
0.0
 40
0.5
100
AcDbArc
 50
180.000036
 51
359.999964
  0
ARC
  5
5F
100
AcDbEntity
  8
0
390
0
  6
CONTINUOUS
 62
     3
100
AcDbCircle
 10
61.985745
 20
238.801559
 30
0.0
 40
0.5
100
AcDbArc
 50
180.000036
 51
359.999964
  0
ARC
  5
60
100
AcDbEntity
  8
0
390
0
  6
CONTINUOUS
 62
     3
100
AcDbCircle
 10
59.765729
 20
257.501541
 30
0.0
 40
0.3
100
AcDbArc
 50
90.000037
 51
179.999964
  0
ARC
  5
61
100
AcDbEntity
  8
0
390
0
  6
CONTINUOUS
 62
     3
100
AcDbCircle
 10
79.765744
 20
239.301559
 30
0.0
 40
0.800003
100
AcDbArc
 50
231.318034
 51
238.044295
  0
ARC
  5
62
100
AcDbEntity
  8
0
390
0
  6
CONTINUOUS
 62
     3
100
AcDbCircle
 10
112.465711
 20
257.501556
 30
0.0
 40
0.3
100
AcDbArc
 50
0.000036
 51
90.000037
  0
LINE
  5
63
100
AcDbEntity
  8
0
390
0
  6
CONTINUOUS
 62
     3
100
AcDbLine
 10
87.515698
 20
177.471588
 30
0.0
 11
84.715695
 21
177.471588
 31
0.0
  0
LINE
  5
64
100
AcDbEntity
  8
0
390
0
  6
CONTINUOUS
 62
     3
100
AcDbLine
 10
87.515698
 20
179.971588
 30
0.0
 11
84.715695
 21
179.971588
 31
0.0
  0
LINE
  5
65
100
AcDbEntity
  8
0
390
0
  6
CONTINUOUS
 62
     3
100
AcDbLine
 10
84.715695
 20
198.131561
 30
0.0
 11
87.515698
 21
198.131561
 31
0.0
  0
LINE
  5
66
100
AcDbEntity
  8
0
390
0
  6
CONTINUOUS
 62
     3
100
AcDbLine
 10
90.515698
 20
198.131561
 30
0.0
 11
107.765653
 21
198.131561
 31
0.0
  0
LINE
  5
67
100
AcDbEntity
  8
0
390
0
  6
CONTINUOUS
 62
     3
100
AcDbLine
 10
64.465695
 20
198.131561
 30
0.0
 11
81.715695
 21
198.131561
 31
0.0
  0
LINE
  5
68
100
AcDbEntity
  8
0
390
0
  6
CONTINUOUS
 62
     3
100
AcDbLine
 10
81.715695
 20
177.471588
 30
0.0
 11
64.465695
 21
177.471588
 31
0.0
  0
LINE
  5
69
100
AcDbEntity
  8
0
390
0
  6
CONTINUOUS
 62
     3
100
AcDbLine
 10
107.765653
 20
177.471588
 30
0.0
 11
90.515698
 21
177.471588
 31
0.0
  0
LINE
  5
6A
100
AcDbEntity
  8
0
390
0
  6
CONTINUOUS
 62
     3
100
AcDbLine
 10
107.765653
 20
179.971588
 30
0.0
 11
90.515698
 21
179.971588
 31
0.0
  0
LINE
  5
6B
100
AcDbEntity
  8
0
390
0
  6
CONTINUOUS
 62
     3
100
AcDbLine
 10
81.715695
 20
179.971588
 30
0.0
 11
64.465695
 21
179.971588
 31
0.0
  0
LINE
  5
6C
100
AcDbEntity
  8
0
390
0
  6
CONTINUOUS
 62
     3
100
AcDbLine
 10
95.36575
 20
256.101532
 30
0.0
 11
95.36575
 21
257.801544
 31
0.0
  0
LINE
  5
6D
100
AcDbEntity
  8
0
390
0
  6
CONTINUOUS
 62
     3
100
AcDbLine
 10
96.86575
 20
256.101532
 30
0.0
 11
96.86575
 21
257.801544
 31
0.0
  0
LINE
  5
6E
100
AcDbEntity
  8
0
390
0
  6
CONTINUOUS
 62
     3
100
AcDbLine
 10
98.115751
 20
256.101547
 30
0.0
 11
94.115766
 21
256.101547
 31
0.0
  0
LINE
  5
6F
100
AcDbEntity
  8
0
390
0
  6
CONTINUOUS
 62
     3
100
AcDbLine
 10
98.11575
 20
256.101532
 30
0.0
 11
98.11575
 21
257.301544
 31
0.0
  0
LINE
  5
70
100
AcDbEntity
  8
0
390
0
  6
CONTINUOUS
 62
     3
100
AcDbLine
 10
94.11575
 20
256.101532
 30
0.0
 11
94.11575
 21
257.301544
 31
0.0
  0
LINE
  5
71
100
AcDbEntity
  8
0
390
0
  6
CONTINUOUS
 62
     3
100
AcDbLine
 10
60.265744
 20
195.301558
 30
0.0
 11
59.465787
 21
195.301558
 31
0.0
  0
LINE
  5
72
100
AcDbEntity
  8
0
390
0
  6
CONTINUOUS
 62
     3
100
AcDbLine
 10
60.265744
 20
192.651549
 30
0.0
 11
59.465787
 21
192.651549
 31
0.0
  0
LINE
  5
73
100
AcDbEntity
  8
0
390
0
  6
CONTINUOUS
 62
     3
100
AcDbLine
 10
60.265729
 20
182.951584
 30
0.0
 11
59.465772
 21
182.951584
 31
0.0
  0
LINE
  5
74
100
AcDbEntity
  8
0
390
0
  6
CONTINUOUS
 62
     3
100
AcDbLine
 10
60.265729
 20
180.30159
 30
0.0
 11
59.465772
 21
180.30159
 31
0.0
  0
LINE
  5
75
100
AcDbEntity
  8
0
390
0
  6
CONTINUOUS
 62
     3
100
AcDbLine
 10
112.765653
 20
195.301558
 30
0.0
 11
111.965698
 21
195.301558
 31
0.0
  0
LINE
  5
76
100
AcDbEntity
  8
0
390
0
  6
CONTINUOUS
 62
     3
100
AcDbLine
 10
112.765653
 20
192.651549
 30
0.0
 11
111.965698
 21
192.651549
 31
0.0
  0
LINE
  5
77
100
AcDbEntity
  8
0
390
0
  6
CONTINUOUS
 62
     3
100
AcDbLine
 10
112.765653
 20
182.951584
 30
0.0
 11
111.965697
 21
182.951584
 31
0.0
  0
LINE
  5
78
100
AcDbEntity
  8
0
390
0
  6
CONTINUOUS
 62
     3
100
AcDbLine
 10
112.765653
 20
180.30159
 30
0.0
 11
111.965697
 21
180.30159
 31
0.0
  0
LINE
  5
79
100
AcDbEntity
  8
0
390
0
  6
CONTINUOUS
 62
     3
100
AcDbLine
 10
64.465772
 20
195.631561
 30
0.0
 11
64.465772
 21
198.131561
 31
0.0
  0
LINE
  5
7A
100
AcDbEntity
  8
0
390
0
  6
CONTINUOUS
 62
     3
100
AcDbLine
 10
107.765671
 20
195.631561
 30
0.0
 11
107.765671
 21
198.131561
 31
0.0
  0
LINE
  5
7B
100
AcDbEntity
  8
0
390
0
  6
CONTINUOUS
 62
     3
100
AcDbLine
 10
64.465756
 20
177.471588
 30
0.0
 11
64.465756
 21
179.971588
 31
0.0
  0
LINE
  5
7C
100
AcDbEntity
  8
0
390
0
  6
CONTINUOUS
 62
     3
100
AcDbLine
 10
107.76567
 20
177.471588
 30
0.0
 11
107.76567
 21
179.971588
 31
0.0
  0
LINE
  5
7D
100
AcDbEntity
  8
0
390
0
  6
CONTINUOUS
 62
     3
100
AcDbLine
 10
63.545712
 20
192.651535
 30
0.0
 11
63.545712
 21
182.951553
 31
0.0
  0
LINE
  5
7E
100
AcDbEntity
  8
0
390
0
  6
CONTINUOUS
 62
     3
100
AcDbLine
 10
108.685697
 20
182.951553
 30
0.0
 11
108.685697
 21
192.651535
 31
0.0
  0
LINE
  5
7F
100
AcDbEntity
  8
0
390
0
  6
CONTINUOUS
 62
     3
100
AcDbLine
 10
90.515698
 20
195.631561
 30
0.0
 11
107.765653
 21
195.631561
 31
0.0
  0
LINE
  5
80
100
AcDbEntity
  8
0
390
0
  6
CONTINUOUS
 62
     3
100
AcDbLine
 10
84.715695
 20
195.631561
 30
0.0
 11
87.515698
 21
195.631561
 31
0.0
  0
LINE
  5
81
100
AcDbEntity
  8
0
390
0
  6
CONTINUOUS
 62
     3
100
AcDbLine
 10
87.515714
 20
198.131561
 30
0.0
 11
87.515714
 21
195.631561
 31
0.0
  0
LINE
  5
82
100
AcDbEntity
  8
0
390
0
  6
CONTINUOUS
 62
     3
100
AcDbLine
 10
84.715711
 20
198.131561
 30
0.0
 11
84.715711
 21
195.631561
 31
0.0
  0
LINE
  5
83
100
AcDbEntity
  8
0
390
0
  6
CONTINUOUS
 62
     3
100
AcDbLine
 10
81.715711
 20
198.131561
 30
0.0
 11
81.715711
 21
195.631561
 31
0.0
  0
LINE
  5
84
100
AcDbEntity
  8
0
390
0
  6
CONTINUOUS
 62
     3
100
AcDbLine
 10
90.515714
 20
195.631561
 30
0.0
 11
90.515714
 21
198.131561
 31
0.0
  0
LINE
  5
85
100
AcDbEntity
  8
0
390
0
  6
CONTINUOUS
 62
     3
100
AcDbLine
 10
87.515714
 20
179.971588
 30
0.0
 11
87.515714
 21
177.471588
 31
0.0
  0
LINE
  5
86
100
AcDbEntity
  8
0
390
0
  6
CONTINUOUS
 62
     3
100
AcDbLine
 10
84.715711
 20
179.971588
 30
0.0
 11
84.715711
 21
177.471588
 31
0.0
  0
LINE
  5
87
100
AcDbEntity
  8
0
390
0
  6
CONTINUOUS
 62
     3
100
AcDbLine
 10
81.715711
 20
179.971588
 30
0.0
 11
81.715711
 21
177.471588
 31
0.0
  0
LINE
  5
88
100
AcDbEntity
  8
0
390
0
  6
CONTINUOUS
 62
     3
100
AcDbLine
 10
90.515714
 20
177.471588
 30
0.0
 11
90.515714
 21
179.971588
 31
0.0
  0
LINE
  5
89
100
AcDbEntity
  8
0
390
0
  6
CONTINUOUS
 62
     3
100
AcDbLine
 10
63.545697
 20
192.65155
 30
0.0
 11
108.685681
 21
192.65155
 31
0.0
  0
LINE
  5
8A
100
AcDbEntity
  8
0
390
0
  6
CONTINUOUS
 62
     3
100
AcDbLine
 10
108.685681
 20
182.951568
 30
0.0
 11
63.545697
 21
182.951568
 31
0.0
  0
LINE
  5
8B
100
AcDbEntity
  8
0
390
0
  6
CONTINUOUS
 62
     3
100
AcDbLine
 10
61.485822
 20
183.841629
 30
0.0
 11
61.485822
 21
184.141632
 31
0.0
  0
LINE
  5
8C
100
AcDbEntity
  8
0
390
0
  6
CONTINUOUS
 62
     3
100
AcDbLine
 10
62.485822
 20
183.841629
 30
0.0
 11
62.485822
 21
184.141647
 31
0.0
  0
LINE
  5
8D
100
AcDbEntity
  8
0
390
0
  6
CONTINUOUS
 62
     3
100
AcDbLine
 10
92.96568
 20
194.40155
 30
0.0
 11
91.96568
 21
194.40155
 31
0.0
  0
LINE
  5
8E
100
AcDbEntity
  8
0
390
0
  6
CONTINUOUS
 62
     3
100
AcDbLine
 10
112.765668
 20
183.801574
 30
0.0
 11
112.765668
 21
199.301513
 31
0.0
  0
LINE
  5
8F
100
AcDbEntity
  8
0
390
0
  6
CONTINUOUS
 62
     3
100
AcDbLine
 10
112.765668
 20
176.301574
 30
0.0
 11
112.765668
 21
191.801574
 31
0.0
  0
LINE
  5
90
100
AcDbEntity
  8
0
390
0
  6
CONTINUOUS
 62
     3
100
AcDbLine
 10
111.765622
 20
175.30159
 30
0.0
 11
60.465695
 21
175.30159
 31
0.0
  0
LINE
  5
91
100
AcDbEntity
  8
0
390
0
  6
CONTINUOUS
 62
     3
100
AcDbLine
 10
60.465711
 20
200.301529
 30
0.0
 11
111.765637
 21
200.301529
 31
0.0
  0
LINE
  5
92
100
AcDbEntity
  8
0
390
0
  6
CONTINUOUS
 62
     3
100
AcDbLine
 10
59.465741
 20
183.801574
 30
0.0
 11
59.465741
 21
199.301544
 31
0.0
  0
LINE
  5
93
100
AcDbEntity
  8
0
390
0
  6
CONTINUOUS
 62
     3
100
AcDbLine
 10
59.465741
 20
176.30159
 30
0.0
 11
59.465741
 21
191.801574
 31
0.0
  0
LINE
  5
94
100
AcDbEntity
  8
0
390
0
  6
CONTINUOUS
 62
     3
100
AcDbLine
 10
62.485806
 20
191.461562
 30
0.0
 11
62.485806
 21
191.76155
 31
0.0
  0
LINE
  5
95
100
AcDbEntity
  8
0
390
0
  6
CONTINUOUS
 62
     3
100
AcDbLine
 10
61.485806
 20
191.461562
 30
0.0
 11
61.485806
 21
191.76155
 31
0.0
  0
LINE
  5
96
100
AcDbEntity
  8
0
390
0
  6
CONTINUOUS
 62
     3
100
AcDbLine
 10
62.485806
 20
183.841583
 30
0.0
 11
62.485806
 21
184.141586
 31
0.0
  0
LINE
  5
97
100
AcDbEntity
  8
0
390
0
  6
CONTINUOUS
 62
     3
100
AcDbLine
 10
61.485806
 20
183.841583
 30
0.0
 11
61.485806
 21
184.141586
 31
0.0
  0
LINE
  5
98
100
AcDbEntity
  8
0
390
0
  6
CONTINUOUS
 62
     3
100
AcDbLine
 10
61.48573
 20
191.761551
 30
0.0
 11
62.48573
 21
191.761551
 31
0.0
  0
LINE
  5
99
100
AcDbEntity
  8
0
390
0
  6
CONTINUOUS
 62
     3
100
AcDbLine
 10
61.48573
 20
191.461563
 30
0.0
 11
62.48573
 21
191.461563
 31
0.0
  0
LINE
  5
9A
100
AcDbEntity
  8
0
390
0
  6
CONTINUOUS
 62
     3
100
AcDbLine
 10
61.48573
 20
184.141571
 30
0.0
 11
62.485745
 21
184.141571
 31
0.0
  0
LINE
  5
9B
100
AcDbEntity
  8
0
390
0
  6
CONTINUOUS
 62
     3
100
AcDbLine
 10
61.48573
 20
183.841568
 30
0.0
 11
62.485745
 21
183.841568
 31
0.0
  0
LINE
  5
9C
100
AcDbEntity
  8
0
390
0
  6
CONTINUOUS
 62
     3
100
AcDbLine
 10
67.565747
 20
194.40155
 30
0.0
 11
67.565747
 21
193.90155
 31
0.0
  0
LINE
  5
9D
100
AcDbEntity
  8
0
390
0
  6
CONTINUOUS
 62
     3
100
AcDbLine
 10
66.565747
 20
194.40155
 30
0.0
 11
66.565747
 21
193.90155
 31
0.0
  0
LINE
  5
9E
100
AcDbEntity
  8
0
390
0
  6
CONTINUOUS
 62
     3
100
AcDbLine
 10
67.565732
 20
193.90155
 30
0.0
 11
66.565732
 21
193.90155
 31
0.0
  0
LINE
  5
9F
100
AcDbEntity
  8
0
390
0
  6
CONTINUOUS
 62
     3
100
AcDbLine
 10
67.565732
 20
194.40155
 30
0.0
 11
66.565732
 21
194.40155
 31
0.0
  0
LINE
  5
A0
100
AcDbEntity
  8
0
390
0
  6
CONTINUOUS
 62
     3
100
AcDbLine
 10
80.265714
 20
194.40155
 30
0.0
 11
80.265714
 21
193.90155
 31
0.0
  0
LINE
  5
A1
100
AcDbEntity
  8
0
390
0
  6
CONTINUOUS
 62
     3
100
AcDbLine
 10
79.265714
 20
194.40155
 30
0.0
 11
79.265714
 21
193.90155
 31
0.0
  0
LINE
  5
A2
100
AcDbEntity
  8
0
390
0
  6
CONTINUOUS
 62
     3
100
AcDbLine
 10
80.265698
 20
193.90155
 30
0.0
 11
79.265698
 21
193.90155
 31
0.0
  0
LINE
  5
A3
100
AcDbEntity
  8
0
390
0
  6
CONTINUOUS
 62
     3
100
AcDbLine
 10
80.265698
 20
194.40155
 30
0.0
 11
79.265698
 21
194.40155
 31
0.0
  0
LINE
  5
A4
100
AcDbEntity
  8
0
390
0
  6
CONTINUOUS
 62
     3
100
AcDbLine
 10
92.965695
 20
194.40155
 30
0.0
 11
92.965695
 21
193.90155
 31
0.0
  0
LINE
  5
A5
100
AcDbEntity
  8
0
390
0
  6
CONTINUOUS
 62
     3
100
AcDbLine
 10
91.965695
 20
194.40155
 30
0.0
 11
91.965695
 21
193.90155
 31
0.0
  0
LINE
  5
A6
100
AcDbEntity
  8
0
390
0
  6
CONTINUOUS
 62
     3
100
AcDbLine
 10
92.96568
 20
193.90155
 30
0.0
 11
91.96568
 21
193.90155
 31
0.0
  0
LINE
  5
A7
100
AcDbEntity
  8
0
390
0
  6
CONTINUOUS
 62
     3
100
AcDbLine
 10
66.565839
 20
181.201584
 30
0.0
 11
66.565839
 21
181.701584
 31
0.0
  0
LINE
  5
A8
100
AcDbEntity
  8
0
390
0
  6
CONTINUOUS
 62
     3
100
AcDbLine
 10
67.565839
 20
181.201584
 30
0.0
 11
67.565839
 21
181.701584
 31
0.0
  0
LINE
  5
A9
100
AcDbEntity
  8
0
390
0
  6
CONTINUOUS
 62
     3
100
AcDbLine
 10
66.565854
 20
181.701584
 30
0.0
 11
67.565854
 21
181.701584
 31
0.0
  0
LINE
  5
AA
100
AcDbEntity
  8
0
390
0
  6
CONTINUOUS
 62
     3
100
AcDbLine
 10
66.565854
 20
181.201584
 30
0.0
 11
67.565854
 21
181.201584
 31
0.0
  0
LINE
  5
AB
100
AcDbEntity
  8
0
390
0
  6
CONTINUOUS
 62
     3
100
AcDbLine
 10
79.265821
 20
181.201584
 30
0.0
 11
79.265821
 21
181.701584
 31
0.0
  0
LINE
  5
AC
100
AcDbEntity
  8
0
390
0
  6
CONTINUOUS
 62
     3
100
AcDbLine
 10
80.265821
 20
181.201584
 30
0.0
 11
80.265821
 21
181.701584
 31
0.0
  0
LINE
  5
AD
100
AcDbEntity
  8
0
390
0
  6
CONTINUOUS
 62
     3
100
AcDbLine
 10
79.265821
 20
181.701599
 30
0.0
 11
80.265821
 21
181.701599
 31
0.0
  0
LINE
  5
AE
100
AcDbEntity
  8
0
390
0
  6
CONTINUOUS
 62
     3
100
AcDbLine
 10
79.265821
 20
181.201599
 30
0.0
 11
80.265821
 21
181.201599
 31
0.0
  0
LINE
  5
AF
100
AcDbEntity
  8
0
390
0
  6
CONTINUOUS
 62
     3
100
AcDbLine
 10
91.965802
 20
181.201599
 30
0.0
 11
91.965802
 21
181.701599
 31
0.0
  0
LINE
  5
B0
100
AcDbEntity
  8
0
390
0
  6
CONTINUOUS
 62
     3
100
AcDbLine
 10
92.965802
 20
181.201599
 30
0.0
 11
92.965802
 21
181.701599
 31
0.0
  0
LINE
  5
B1
100
AcDbEntity
  8
0
390
0
  6
CONTINUOUS
 62
     3
100
AcDbLine
 10
91.965802
 20
181.701599
 30
0.0
 11
92.965802
 21
181.701599
 31
0.0
  0
LINE
  5
B2
100
AcDbEntity
  8
0
390
0
  6
CONTINUOUS
 62
     3
100
AcDbLine
 10
91.965802
 20
181.201599
 30
0.0
 11
92.965802
 21
181.201599
 31
0.0
  0
LINE
  5
B3
100
AcDbEntity
  8
0
390
0
  6
CONTINUOUS
 62
     3
100
AcDbLine
 10
105.665677
 20
194.40155
 30
0.0
 11
105.665677
 21
193.90155
 31
0.0
  0
LINE
  5
B4
100
AcDbEntity
  8
0
390
0
  6
CONTINUOUS
 62
     3
100
AcDbLine
 10
104.665677
 20
194.40155
 30
0.0
 11
104.665677
 21
193.90155
 31
0.0
  0
LINE
  5
B5
100
AcDbEntity
  8
0
390
0
  6
CONTINUOUS
 62
     3
100
AcDbLine
 10
105.665662
 20
193.90155
 30
0.0
 11
104.665662
 21
193.90155
 31
0.0
  0
LINE
  5
B6
100
AcDbEntity
  8
0
390
0
  6
CONTINUOUS
 62
     3
100
AcDbLine
 10
105.665662
 20
194.40155
 30
0.0
 11
104.665662
 21
194.40155
 31
0.0
  0
LINE
  5
B7
100
AcDbEntity
  8
0
390
0
  6
CONTINUOUS
 62
     3
100
AcDbLine
 10
104.665694
 20
181.201599
 30
0.0
 11
104.665694
 21
181.701599
 31
0.0
  0
LINE
  5
B8
100
AcDbEntity
  8
0
390
0
  6
CONTINUOUS
 62
     3
100
AcDbLine
 10
105.665694
 20
181.201584
 30
0.0
 11
105.665694
 21
181.701584
 31
0.0
  0
LINE
  5
B9
100
AcDbEntity
  8
0
390
0
  6
CONTINUOUS
 62
     3
100
AcDbLine
 10
104.665694
 20
181.701599
 30
0.0
 11
105.665694
 21
181.701599
 31
0.0
  0
LINE
  5
BA
100
AcDbEntity
  8
0
390
0
  6
CONTINUOUS
 62
     3
100
AcDbLine
 10
104.665694
 20
181.201599
 30
0.0
 11
105.665694
 21
181.201599
 31
0.0
  0
LINE
  5
BB
100
AcDbEntity
  8
0
390
0
  6
CONTINUOUS
 62
     3
100
AcDbLine
 10
111.265637
 20
176.101593
 30
0.0
 11
60.965726
 21
176.101593
 31
0.0
  0
LINE
  5
BC
100
AcDbEntity
  8
0
390
0
  6
CONTINUOUS
 62
     3
100
AcDbLine
 10
60.965726
 20
199.501526
 30
0.0
 11
111.265637
 21
199.501526
 31
0.0
  0
LINE
  5
BD
100
AcDbEntity
  8
0
390
0
  6
CONTINUOUS
 62
     3
100
AcDbLine
 10
60.265744
 20
176.80159
 30
0.0
 11
60.265744
 21
191.801574
 31
0.0
  0
LINE
  5
BE
100
AcDbEntity
  8
0
390
0
  6
CONTINUOUS
 62
     3
100
AcDbLine
 10
111.96568
 20
176.80159
 30
0.0
 11
111.96568
 21
191.801574
 31
0.0
  0
LINE
  5
BF
100
AcDbEntity
  8
0
390
0
  6
CONTINUOUS
 62
     3
100
AcDbLine
 10
60.265744
 20
183.801574
 30
0.0
 11
60.265744
 21
198.801559
 31
0.0
  0
LINE
  5
C0
100
AcDbEntity
  8
0
390
0
  6
CONTINUOUS
 62
     3
100
AcDbLine
 10
111.96568
 20
183.801574
 30
0.0
 11
111.96568
 21
198.801544
 31
0.0
  0
LINE
  5
C1
100
AcDbEntity
  8
0
390
0
  6
CONTINUOUS
 62
     3
100
AcDbLine
 10
64.465695
 20
195.631561
 30
0.0
 11
81.715695
 21
195.631561
 31
0.0
  0
LINE
  5
C2
100
AcDbEntity
  8
0
390
0
  6
CONTINUOUS
 62
     3
100
AcDbLine
 10
145.857846
 20
237.801559
 30
0.0
 11
145.857846
 21
241.302948
 31
0.0
  0
LINE
  5
C3
100
AcDbEntity
  8
0
390
0
  6
CONTINUOUS
 62
     3
100
AcDbLine
 10
145.357846
 20
237.801559
 30
0.0
 11
145.357846
 21
241.347229
 31
0.0
  0
LINE
  5
C4
100
AcDbEntity
  8
0
390
0
  6
CONTINUOUS
 62
     3
100
AcDbLine
 10
145.357846
 20
237.981567
 30
0.0
 11
145.857846
 21
237.981567
 31
0.0
  0
LINE
  5
C5
100
AcDbEntity
  8
0
390
0
  6
CONTINUOUS
 62
     3
100
AcDbLine
 10
145.357846
 20
237.801574
 30
0.0
 11
145.857846
 21
237.801574
 31
0.0
  0
LINE
  5
C6
100
AcDbEntity
  8
0
390
0
  6
CONTINUOUS
 62
     3
100
AcDbLine
 10
158.057828
 20
241.302948
 30
0.0
 11
158.057828
 21
237.801559
 31
0.0
  0
LINE
  5
C7
100
AcDbEntity
  8
0
390
0
  6
CONTINUOUS
 62
     3
100
AcDbLine
 10
148.297833
 20
241.801559
 30
0.0
 11
148.297833
 21
237.801574
 31
0.0
  0
LINE
  5
C8
100
AcDbEntity
  8
0
390
0
  6
CONTINUOUS
 62
     3
100
AcDbLine
 10
147.997846
 20
241.801559
 30
0.0
 11
147.997846
 21
237.801574
 31
0.0
  0
LINE
  5
C9
100
AcDbEntity
  8
0
390
0
  6
CONTINUOUS
 62
     3
100
AcDbLine
 10
155.917829
 20
241.801559
 30
0.0
 11
155.917829
 21
237.801559
 31
0.0
  0
LINE
  5
CA
100
AcDbEntity
  8
0
390
0
  6
CONTINUOUS
 62
     3
100
AcDbLine
 10
155.617841
 20
241.801559
 30
0.0
 11
155.617841
 21
237.801559
 31
0.0
  0
LINE
  5
CB
100
AcDbEntity
  8
0
390
0
  6
CONTINUOUS
 62
     3
100
AcDbLine
 10
163.657834
 20
241.801559
 30
0.0
 11
164.457837
 21
241.801559
 31
0.0
  0
LINE
  5
CC
100
AcDbEntity
  8
0
390
0
  6
CONTINUOUS
 62
     3
100
AcDbLine
 10
139.757916
 20
257.801544
 30
0.0
 11
155.957837
 21
257.801544
 31
0.0
  0
LINE
  5
CD
100
AcDbEntity
  8
0
390
0
  6
CONTINUOUS
 62
     3
100
AcDbLine
 10
147.957837
 20
257.801544
 30
0.0
 11
164.157834
 21
257.801544
 31
0.0
  0
LINE
  5
CE
100
AcDbEntity
  8
0
390
0
  6
CONTINUOUS
 62
     3
100
AcDbLine
 10
154.057828
 20
241.801559
 30
0.0
 11
156.809964
 21
241.801559
 31
0.0
  0
LINE
  5
CF
100
AcDbEntity
  8
0
390
0
  6
CONTINUOUS
 62
     3
100
AcDbLine
 10
159.455716
 20
241.801559
 30
0.0
 11
162.177838
 21
241.801559
 31
0.0
  0
LINE
  5
D0
100
AcDbEntity
  8
0
390
0
  6
CONTINUOUS
 62
     3
100
AcDbLine
 10
140.25784
 20
241.801559
 30
0.0
 11
144.459973
 21
241.801559
 31
0.0
  0
LINE
  5
D1
100
AcDbEntity
  8
0
390
0
  6
CONTINUOUS
 62
     3
100
AcDbLine
 10
139.457929
 20
257.501541
 30
0.0
 11
139.457929
 21
241.801559
 31
0.0
  0
LINE
  5
D2
100
AcDbEntity
  8
0
390
0
  6
CONTINUOUS
 62
     3
100
AcDbLine
 10
164.457837
 20
257.501541
 30
0.0
 11
164.457837
 21
241.801559
 31
0.0
  0
LINE
  5
D3
100
AcDbEntity
  8
0
390
0
  6
CONTINUOUS
 62
     3
100
AcDbLine
 10
158.557828
 20
241.347198
 30
0.0
 11
158.557828
 21
237.801559
 31
0.0
  0
LINE
  5
D4
100
AcDbEntity
  8
0
390
0
  6
CONTINUOUS
 62
     3
100
AcDbLine
 10
158.057828
 20
237.981567
 30
0.0
 11
158.557828
 21
237.981567
 31
0.0
  0
LINE
  5
D5
100
AcDbEntity
  8
0
390
0
  6
CONTINUOUS
 62
     3
100
AcDbLine
 10
155.617841
 20
237.981567
 30
0.0
 11
155.917829
 21
237.981567
 31
0.0
  0
LINE
  5
D6
100
AcDbEntity
  8
0
390
0
  6
CONTINUOUS
 62
     3
100
AcDbLine
 10
147.997846
 20
237.981567
 30
0.0
 11
148.297833
 21
237.981567
 31
0.0
  0
LINE
  5
D7
100
AcDbEntity
  8
0
390
0
  6
CONTINUOUS
 62
     3
100
AcDbLine
 10
148.297833
 20
241.801559
 30
0.0
 11
155.917829
 21
241.801559
 31
0.0
  0
LINE
  5
D8
100
AcDbEntity
  8
0
390
0
  6
CONTINUOUS
 62
     3
100
AcDbLine
 10
155.617841
 20
237.801574
 30
0.0
 11
155.917829
 21
237.801574
 31
0.0
  0
LINE
  5
D9
100
AcDbEntity
  8
0
390
0
  6
CONTINUOUS
 62
     3
100
AcDbLine
 10
147.997846
 20
237.801574
 30
0.0
 11
148.297833
 21
237.801574
 31
0.0
  0
LINE
  5
DA
100
AcDbEntity
  8
0
390
0
  6
CONTINUOUS
 62
     3
100
AcDbLine
 10
158.057828
 20
237.801574
 30
0.0
 11
158.557828
 21
237.801574
 31
0.0
  0
LINE
  5
DB
100
AcDbEntity
  8
0
390
0
  6
CONTINUOUS
 62
     3
100
AcDbLine
 10
147.105725
 20
241.801559
 30
0.0
 11
152.297833
 21
241.801559
 31
0.0
  0
LINE
  5
DC
100
AcDbEntity
  8
0
390
0
  6
CONTINUOUS
 62
     3
100
AcDbLine
 10
162.177838
 20
241.801559
 30
0.0
 11
163.657834
 21
241.801559
 31
0.0
  0
LINE
  5
DD
100
AcDbEntity
  8
0
390
0
  6
CONTINUOUS
 62
     3
100
AcDbLine
 10
139.457929
 20
241.801559
 30
0.0
 11
140.25784
 21
241.801559
 31
0.0
  0
LINE
  5
DE
100
AcDbEntity
  8
0
390
0
  6
CONTINUOUS
 62
     3
100
AcDbLine
 10
84.61575
 20
252.101562
 30
0.0
 11
84.61575
 21
256.801544
 31
0.0
  0
LINE
  5
DF
100
AcDbEntity
  8
0
390
0
  6
CONTINUOUS
 62
     3
100
AcDbLine
 10
87.61575
 20
252.101562
 30
0.0
 11
87.61575
 21
256.801559
 31
0.0
  0
LINE
  5
E0
100
AcDbEntity
  8
0
390
0
  6
CONTINUOUS
 62
     3
100
AcDbLine
 10
87.615766
 20
252.101562
 30
0.0
 11
84.615766
 21
252.101562
 31
0.0
  0
LINE
  5
E1
100
AcDbEntity
  8
0
390
0
  6
CONTINUOUS
 62
     3
100
AcDbLine
 10
104.665695
 20
238.801559
 30
0.0
 11
104.665695
 21
241.801559
 31
0.0
  0
LINE
  5
E2
100
AcDbEntity
  8
0
390
0
  6
CONTINUOUS
 62
     3
100
AcDbLine
 10
59.465787
 20
241.801559
 30
0.0
 11
59.465787
 21
241.301559
 31
0.0
  0
LINE
  5
E3
100
AcDbEntity
  8
0
390
0
  6
CONTINUOUS
 62
     3
100
AcDbLine
 10
60.26579
 20
241.801559
 30
0.0
 11
60.26579
 21
241.301559
 31
0.0
  0
LINE
  5
E4
100
AcDbEntity
  8
0
390
0
  6
CONTINUOUS
 62
     3
100
AcDbLine
 10
60.26579
 20
241.301559
 30
0.0
 11
59.465787
 21
241.301559
 31
0.0
  0
LINE
  5
E5
100
AcDbEntity
  8
0
390
0
  6
CONTINUOUS
 62
     3
100
AcDbLine
 10
112.765699
 20
241.301559
 30
0.0
 11
112.765699
 21
241.801559
 31
0.0
  0
LINE
  5
E6
100
AcDbEntity
  8
0
390
0
  6
CONTINUOUS
 62
     3
100
AcDbLine
 10
111.965698
 20
241.301559
 30
0.0
 11
111.965698
 21
241.801559
 31
0.0
  0
LINE
  5
E7
100
AcDbEntity
  8
0
390
0
  6
CONTINUOUS
 62
     3
100
AcDbLine
 10
112.765699
 20
241.301559
 30
0.0
 11
111.965698
 21
241.301559
 31
0.0
  0
LINE
  5
E8
100
AcDbEntity
  8
0
390
0
  6
CONTINUOUS
 62
     3
100
AcDbLine
 10
62.485806
 20
238.801559
 30
0.0
 11
62.485806
 21
241.801559
 31
0.0
  0
LINE
  5
E9
100
AcDbEntity
  8
0
390
0
  6
CONTINUOUS
 62
     3
100
AcDbLine
 10
86.11575
 20
257.801544
 30
0.0
 11
59.76579
 21
257.801544
 31
0.0
  0
LINE
  5
EA
100
AcDbEntity
  8
0
390
0
  6
CONTINUOUS
 62
     3
100
AcDbLine
 10
59.465787
 20
248.251541
 30
0.0
 11
59.465787
 21
257.501541
 31
0.0
  0
LINE
  5
EB
100
AcDbEntity
  8
0
390
0
  6
CONTINUOUS
 62
     3
100
AcDbLine
 10
86.11575
 20
241.801559
 30
0.0
 11
61.485806
 21
241.801559
 31
0.0
  0
LINE
  5
EC
100
AcDbEntity
  8
0
390
0
  6
CONTINUOUS
 62
     3
100
AcDbLine
 10
60.26579
 20
241.801559
 30
0.0
 11
59.465787
 21
241.801559
 31
0.0
  0
LINE
  5
ED
100
AcDbEntity
  8
0
390
0
  6
CONTINUOUS
 62
     3
100
AcDbLine
 10
61.485806
 20
241.801559
 30
0.0
 11
60.26579
 21
241.801559
 31
0.0
  0
LINE
  5
EE
100
AcDbEntity
  8
0
390
0
  6
CONTINUOUS
 62
     3
100
AcDbLine
 10
59.465787
 20
241.801559
 30
0.0
 11
59.465787
 21
248.251541
 31
0.0
  0
LINE
  5
EF
100
AcDbEntity
  8
0
390
0
  6
CONTINUOUS
 62
     3
100
AcDbLine
 10
80.265775
 20
238.801559
 30
0.0
 11
80.265775
 21
241.801559
 31
0.0
  0
LINE
  5
F0
100
AcDbEntity
  8
0
390
0
  6
CONTINUOUS
 62
     3
100
AcDbLine
 10
79.265775
 20
238.801559
 30
0.0
 11
79.265775
 21
241.801559
 31
0.0
  0
LINE
  5
F1
100
AcDbEntity
  8
0
390
0
  6
CONTINUOUS
 62
     3
100
AcDbLine
 10
67.565793
 20
238.801559
 30
0.0
 11
67.565793
 21
241.801559
 31
0.0
  0
LINE
  5
F2
100
AcDbEntity
  8
0
390
0
  6
CONTINUOUS
 62
     3
100
AcDbLine
 10
66.565793
 20
238.801559
 30
0.0
 11
66.565793
 21
241.801559
 31
0.0
  0
LINE
  5
F3
100
AcDbEntity
  8
0
390
0
  6
CONTINUOUS
 62
     3
100
AcDbLine
 10
112.765699
 20
241.801559
 30
0.0
 11
111.965698
 21
241.801559
 31
0.0
  0
LINE
  5
F4
100
AcDbEntity
  8
0
390
0
  6
CONTINUOUS
 62
     3
100
AcDbLine
 10
61.485806
 20
238.801559
 30
0.0
 11
61.485806
 21
241.801559
 31
0.0
  0
LINE
  5
F5
100
AcDbEntity
  8
0
390
0
  6
CONTINUOUS
 62
     3
100
AcDbLine
 10
112.765699
 20
241.801559
 30
0.0
 11
112.765699
 21
257.501556
 31
0.0
  0
LINE
  5
F6
100
AcDbEntity
  8
0
390
0
  6
CONTINUOUS
 62
     3
100
AcDbLine
 10
112.465698
 20
257.801559
 30
0.0
 11
86.11575
 21
257.801559
 31
0.0
  0
LINE
  5
F7
100
AcDbEntity
  8
0
390
0
  6
CONTINUOUS
 62
     3
100
AcDbLine
 10
105.665695
 20
241.801559
 30
0.0
 11
91.965756
 21
241.801559
 31
0.0
  0
LINE
  5
F8
100
AcDbEntity
  8
0
390
0
  6
CONTINUOUS
 62
     3
100
AcDbLine
 10
111.965698
 20
241.801559
 30
0.0
 11
105.665695
 21
241.801559
 31
0.0
  0
LINE
  5
F9
100
AcDbEntity
  8
0
390
0
  6
CONTINUOUS
 62
     3
100
AcDbLine
 10
91.965756
 20
241.801559
 30
0.0
 11
86.11575
 21
241.801559
 31
0.0
  0
LINE
  5
FA
100
AcDbEntity
  8
0
390
0
  6
CONTINUOUS
 62
     3
100
AcDbLine
 10
105.665695
 20
238.801559
 30
0.0
 11
105.665695
 21
241.801559
 31
0.0
  0
LINE
  5
FB
100
AcDbEntity
  8
0
390
0
  6
CONTINUOUS
 62
     3
100
AcDbLine
 10
92.965756
 20
238.801559
 30
0.0
 11
92.965756
 21
241.801559
 31
0.0
  0
LINE
  5
FC
100
AcDbEntity
  8
0
390
0
  6
CONTINUOUS
 62
     3
100
AcDbLine
 10
91.965756
 20
238.801559
 30
0.0
 11
91.965756
 21
241.801559
 31
0.0
  0
MTEXT
  5
FD
100
AcDbEntity
  8
0
390
0
  6
CONTINUOUS
 62
   110
100
AcDbMText
 10
114.823698
 20
31.028906
 30
0.0
 40
4.4
 41
0.0
 71
     5
 72
     1
  1
\W0.713;\A1;Panasonic Corporation\PAutomation Controls Business Unit
 73
     1
 44
1.0
  0
MTEXT
  5
FE
100
AcDbEntity
  8
0
390
0
  6
CONTINUOUS
 62
   110
100
AcDbMText
 10
86.339292
 20
19.21475
 30
0.0
 40
3.24
 41
0.0
 71
     1
 72
     1
  1
\W0.716;\A1;(C)Panasonic Corporation 2012
 73
     1
 44
1.0
  0
MTEXT
  5
FF
100
AcDbEntity
  8
0
390
0
  6
CONTINUOUS
 62
     7
100
AcDbMText
 10
144.345606
 20
58.143908
 30
0.0
 40
4.0
 41
0.0
 71
     1
 72
     1
  1
\W0.728;\A1;Date Jan. 1.2012
 73
     1
 44
1.0
  0
LINE
  5
101
100
AcDbEntity
  8
DEFPOINTS
390
0
  6
NON_PLOTING
 62
     3
100
AcDbLine
 10
10.0
 20
10.0
 30
0.0
 11
220.0
 21
10.0
 31
0.0
  0
LINE
  5
102
100
AcDbEntity
  8
DEFPOINTS
390
0
  6
NON_PLOTING
 62
     3
100
AcDbLine
 10
220.0
 20
10.0
 30
0.0
 11
220.0
 21
307.0
 31
0.0
  0
ENDSEC
  0
SECTION
  2
OBJECTS
  0
DICTIONARY
  5
19
100
AcDbDictionary
280
     0
281
     1
  3
ACAD_GROUP
350
1A
  3
ACAD_MLINESTYLE
350
1B
  3
ACAD_LAYOUT
350
1E
  3
ACAD_PLOTSETTINGS
350
22
  3
ACAD_PLOTSTYLENAME
350
1F
  0
DICTIONARY
  5
1A
102
{ACAD_REACTORS
330
19
102
}
100
AcDbDictionary
280
     0
281
     1
  0
DICTIONARY
  5
1B
102
{ACAD_REACTORS
330
19
102
}
100
AcDbDictionary
280
     0
281
     1
  3
Standard
350
1C
  0
MLINESTYLE
  5
1C
102
{ACAD_REACTORS
330
1B
102
}
100
AcDbMlineStyle
  2
Standard
 70
     0
  3

 62
     0
 51
90.0
 52
90.0
 71
     2
 49
0.5
 62
   256
  6
ByLayer
 49
-0.5
 62
   256
  6
ByLayer
  0
ACDBDICTIONARYWDFLT
  5
1F
102
{ACAD_REACTORS
330
19
102
}
100
AcDbDictionary
281
     1
  3
Normal
350
1D
100
AcDbDictionaryWithDefault
340
1D
  0
ACDBPLACEHOLDER
  5
1D
102
{ACAD_REACTORS
330
1F
102
}
  0
LAYOUT
  5
20
102
{ACAD_REACTORS
330
1E
102
}
100
AcDbPlotSettings
  1

  2

  4

  6

 40
0.0
 41
0.0
 42
0.0
 43
0.0
 44
0.0
 45
0.0
 46
0.0
 47
0.0
 48
0.0
 49
0.0
140
0.0
141
0.0
142
1.0
143
1.0
 70
  1024
 72
     0
 73
     0
 74
     0
  7

 75
     0
147
1.0
148
0.0
149
0.0
100
AcDbLayout
  1
Model
 70
     0
 71
     0
 10
0.0
 20
0.0
 11
0.0
 21
0.0
 12
0.0
 22
0.0
 32
0.0
 14
0.0
 24
0.0
 34
0.0
 15
0.0
 25
0.0
 35
0.0
146
0.0
 13
0.0
 23
0.0
 33
0.0
 16
0.0
 26
0.0
 36
0.0
 17
0.0
 27
0.0
 37
0.0
 76
     0
330
A
331
0
345
0
346
0
  0
LAYOUT
  5
21
102
{ACAD_REACTORS
330
1E
102
}
100
AcDbPlotSettings
  1

  2

  4

  6

 40
0.0
 41
0.0
 42
0.0
 43
0.0
 44
0.0
 45
0.0
 46
0.0
 47
0.0
 48
0.0
 49
0.0
140
0.0
141
0.0
142
1.0
143
1.0
 70
     0
 72
     0
 73
     0
 74
     0
  7

 75
     0
147
1.0
148
0.0
149
0.0
100
AcDbLayout
  1
Layout1
 70
     0
 71
     0
 10
0.0
 20
0.0
 11
0.0
 21
0.0
 12
0.0
 22
0.0
 32
0.0
 14
0.0
 24
0.0
 34
0.0
 15
0.0
 25
0.0
 35
0.0
146
0.0
 13
0.0
 23
0.0
 33
0.0
 16
0.0
 26
0.0
 36
0.0
 17
0.0
 27
0.0
 37
0.0
 76
     0
330
B
331
0
345
0
346
0
  0
DICTIONARY
  5
1E
102
{ACAD_REACTORS
330
19
102
}
100
AcDbDictionary
280
     0
281
     1
  3
Layout1
350
21
  3
Model
350
20
  0
DICTIONARY
  5
22
102
{ACAD_REACTORS
330
19
102
}
100
AcDbDictionary
280
     0
281
     1
  0
ENDSEC
  0
EOF
