  0
SECTION
  2
HEADER
  9
$ACADVER
  1
AC1009
  9
$DWGCODEPAGE
  3
dos932
  9
$INSBASE
 10
0.0
 20
0.0
 30
0.0
  9
$EXTMIN
 10
0.0
 20
0.0
 30
0.0
  9
$EXTMAX
 10
210.0
 20
297.0
 30
0.0
  9
$LIMMIN
 10
0.0
 20
0.0
  9
$LIMMAX
 10
210.0
 20
297.0
  9
$ORTHOMODE
 70
     0
  9
$REGENMODE
 70
     1
  9
$FILLMODE
 70
     1
  9
$QTEXTMODE
 70
     0
  9
$MIRRTEXT
 70
     1
  9
$DRAGMODE
 70
     2
  9
$LTSCALE
 40
1.0
  9
$OSMODE
 70
    37
  9
$ATTMODE
 70
     1
  9
$TEXTSIZE
 40
3.5277777778
  9
$TRACEWID
 40
1.0
  9
$TEXTSTYLE
  7
STANDARD
  9
$CLAYER
  8
0
  9
$CELTYPE
  6
BYLAYER
  9
$CECOLOR
 62
   256
  9
$DIMSCALE
 40
1.0
  9
$DIMASZ
 40
3.0316840278
  9
$DIMEXO
 40
0.0
  9
$DIMDLI
 40
3.75
  9
$DIMRND
 40
0.0
  9
$DIMDLE
 40
0.0
  9
$DIMEXE
 40
1.0
  9
$DIMTP
 40
0.0
  9
$DIMTM
 40
0.0
  9
$DIMTXT
 40
3.5277777778
  9
$DIMCEN
 40
2.5
  9
$DIMTSZ
 40
0.0
  9
$DIMTOL
 70
     0
  9
$DIMLIM
 70
     0
  9
$DIMTIH
 70
     1
  9
$DIMTOH
 70
     1
  9
$DIMSE1
 70
     0
  9
$DIMSE2
 70
     0
  9
$DIMTAD
 70
     1
  9
$DIMZIN
 70
     1
  9
$DIMBLK
  1

  9
$DIMASO
 70
     1
  9
$DIMSHO
 70
     1
  9
$DIMPOST
  1

  9
$DIMAPOST
  1

  9
$DIMALT
 70
     0
  9
$DIMALTD
 70
     3
  9
$DIMALTF
 40
0.0393700787
  9
$DIMLFAC
 40
1.0
  9
$DIMTOFL
 70
     1
  9
$DIMTVP
 40
0.0
  9
$DIMTIX
 70
     0
  9
$DIMSOXD
 70
     0
  9
$DIMSAH
 70
     0
  9
$DIMBLK1
  1

  9
$DIMBLK2
  1

  9
$DIMSTYLE
  2
ISO-25
  9
$DIMCLRD
 70
     0
  9
$DIMCLRE
 70
     0
  9
$DIMCLRT
 70
     0
  9
$DIMTFAC
 40
1.0
  9
$DIMGAP
 40
1.524
  9
$LUNITS
 70
     2
  9
$LUPREC
 70
     2
  9
$SKETCHINC
 40
1.0
  9
$FILLETRAD
 40
10.0
  9
$AUNITS
 70
     0
  9
$AUPREC
 70
     2
  9
$MENU
  1
.
  9
$ELEVATION
 40
0.0
  9
$PELEVATION
 40
0.0
  9
$THICKNESS
 40
0.0
  9
$LIMCHECK
 70
     0
  9
$CHAMFERA
 40
10.0
  9
$CHAMFERB
 40
10.0
  9
$SKPOLY
 70
     0
  9
$TDCREATE
 40
2456283.652110104
  9
$TDUPDATE
 40
2456283.652110116
  9
$TDINDWG
 40
0.0000000116
  9
$TDUSRTIMER
 40
0.0000000116
  9
$USRTIMER
 70
     1
  9
$ANGBASE
 50
0.0
  9
$ANGDIR
 70
     0
  9
$PDMODE
 70
     0
  9
$PDSIZE
 40
-1.0
  9
$PLINEWID
 40
0.0
  9
$COORDS
 70
     1
  9
$SPLFRAME
 70
     0
  9
$SPLINETYPE
 70
     6
  9
$SPLINESEGS
 70
     8
  9
$ATTDIA
 70
     0
  9
$ATTREQ
 70
     1
  9
$HANDLING
 70
     1
  9
$HANDSEED
  5
169
  9
$SURFTAB1
 70
     6
  9
$SURFTAB2
 70
     6
  9
$SURFTYPE
 70
     6
  9
$SURFU
 70
     6
  9
$SURFV
 70
     6
  9
$UCSNAME
  2

  9
$UCSORG
 10
0.0
 20
0.0
 30
0.0
  9
$UCSXDIR
 10
1.0
 20
0.0
 30
0.0
  9
$UCSYDIR
 10
0.0
 20
1.0
 30
0.0
  9
$PUCSNAME
  2

  9
$PUCSORG
 10
0.0
 20
0.0
 30
0.0
  9
$PUCSXDIR
 10
1.0
 20
0.0
 30
0.0
  9
$PUCSYDIR
 10
0.0
 20
1.0
 30
0.0
  9
$USERI1
 70
     0
  9
$USERI2
 70
     0
  9
$USERI3
 70
     0
  9
$USERI4
 70
     0
  9
$USERI5
 70
     0
  9
$USERR1
 40
0.0
  9
$USERR2
 40
0.0
  9
$USERR3
 40
0.0
  9
$USERR4
 40
0.0
  9
$USERR5
 40
0.0
  9
$WORLDVIEW
 70
     1
  9
$SHADEDGE
 70
     3
  9
$SHADEDIF
 70
    70
  9
$TILEMODE
 70
     1
  9
$MAXACTVP
 70
    64
  9
$PLIMCHECK
 70
     0
  9
$PEXTMIN
 10
1.0000000000E+20
 20
1.0000000000E+20
 30
1.0000000000E+20
  9
$PEXTMAX
 10
-1.0000000000E+20
 20
-1.0000000000E+20
 30
-1.0000000000E+20
  9
$PLIMMIN
 10
0.0
 20
0.0
  9
$PLIMMAX
 10
420.0
 20
297.0
  9
$UNITMODE
 70
     0
  9
$VISRETAIN
 70
     1
  9
$PLINEGEN
 70
     0
  9
$PSLTSCALE
 70
     1
  0
ENDSEC
  0
SECTION
  2
TABLES
  0
TABLE
  2
VPORT
 70
     1
  0
VPORT
  2
*ACTIVE
 70
     0
 10
0.0
 20
0.0
 11
1.0
 21
1.0
 12
105.0
 22
148.5
 13
0.0
 23
0.0
 14
10.0
 24
10.0
 15
10.0
 25
10.0
 16
0.0
 26
0.0
 36
1.0
 17
0.0
 27
0.0
 37
0.0
 40
297.0
 41
0.7070707071
 42
50.0
 43
0.0
 44
0.0
 50
0.0
 51
0.0
 71
     0
 72
  2000
 73
     1
 74
     3
 75
     0
 76
     0
 77
     0
 78
     0
  0
ENDTAB
  0
TABLE
  2
LTYPE
 70
     8
  0
LTYPE
  2
CONTINUOUS
 70
     0
  3
Solid line
 72
    65
 73
     0
 40
0.0
  0
LTYPE
  2
SLD-実線
 70
     0
  3
SolidWorks Line Style
 72
    65
 73
     0
 40
0.0
  0
LTYPE
  2
SLD-破線
 70
     0
  3
SolidWorks Line Style
 72
    65
 73
     2
 40
1.905
 49
1.27
 49
-0.635
  0
LTYPE
  2
SLD-2点鎖線
 70
     0
  3
SolidWorks Line Style
 72
    65
 73
     6
 40
12.7
 49
6.35
 49
-1.27
 49
1.27
 49
-1.27
 49
1.27
 49
-1.27
  0
LTYPE
  2
SLD-鎖線
 70
     0
  3
SolidWorks Line Style
 72
    65
 73
     4
 40
10.16
 49
6.35
 49
-1.27
 49
1.27
 49
-1.27
  0
LTYPE
  2
SLD-1点鎖線_中心線_
 70
     0
  3
SolidWorks Line Style
 72
    65
 73
     4
 40
34.29
 49
30.48
 49
-1.27
 49
1.27
 49
-1.27
  0
LTYPE
  2
SLD-点線
 70
     0
  3
SolidWorks Line Style
 72
    65
 73
     2
 40
0.635
 49
0.0
 49
-0.635
  0
LTYPE
  2
SLD-細-太鎖線_切断面_
 70
     0
  3
SolidWorks Line Style
 72
    65
 73
     4
 40
10.16
 49
6.35
 49
-1.27
 49
1.27
 49
-1.27
  0
ENDTAB
  0
TABLE
  2
LAYER
 70
     5
  0
LAYER
  2
0
 70
     0
 62
     7
  6
CONTINUOUS
  0
LAYER
  2
FORMAT
 70
     0
 62
     7
  6
SLD-実線
  0
LAYER
  2
LY_1
 70
     0
 62
     7
  6
SLD-実線
  0
LAYER
  2
SLD-DEFPOINTS
 70
     0
 62
     7
  6
SLD-実線
  0
LAYER
  2
SLD-0
 70
     0
 62
     7
  6
SLD-実線
  0
ENDTAB
  0
TABLE
  2
STYLE
 70
     1
  0
STYLE
  2
STANDARD
 70
     0
 40
0.0
 41
1.0
 50
0.0
 71
     0
 42
2.5
  3
txt
  4
bigfont
  0
ENDTAB
  0
TABLE
  2
VIEW
 70
     0
  0
ENDTAB
  0
TABLE
  2
UCS
 70
     0
  0
ENDTAB
  0
TABLE
  2
APPID
 70
     1
  0
APPID
  2
ACAD
 70
     0
  0
ENDTAB
  0
TABLE
  2
DIMSTYLE
 70
     1
  0
DIMSTYLE
  2
ISO-25
 70
     0
  3

  4

  5

  6

  7

 40
1.0
 41
2.5
 42
0.625
 43
3.75
 44
1.25
 45
0.0
 46
0.0
 47
0.0
 48
0.0
140
2.5
141
2.5
142
0.0
143
0.0393700787
144
1.0
145
0.0
146
1.0
147
0.625
 71
     0
 72
     0
 73
     0
 74
     0
 75
     0
 76
     0
 77
     1
 78
     8
170
     0
171
     3
172
     1
173
     0
174
     0
175
     0
176
     0
177
     0
178
     0
  0
ENDTAB
  0
ENDSEC
  0
SECTION
  2
BLOCKS
  0
BLOCK
  8
0
  2
$MODEL_SPACE
 70
     0
 10
0.0
 20
0.0
 30
0.0
  3
$MODEL_SPACE
  1

  0
ENDBLK
  5
21
  8
0
  0
BLOCK
 67
     1
  8
0
  2
$PAPER_SPACE
 70
     0
 10
0.0
 20
0.0
 30
0.0
  3
$PAPER_SPACE
  1

  0
ENDBLK
  5
1D
 67
     1
  8
0
  0
ENDSEC
  0
SECTION
  2
ENTITIES
  0
LINE
  5
4A
  8
0
  6
SLD-実線
 62
     7
 10
132.5
 20
36.5
 30
0.0
 11
198.5
 21
36.5
 31
0.0
  0
LINE
  5
4B
  8
0
  6
SLD-実線
 62
     7
 10
11.5
 20
43.0
 30
0.0
 11
198.5
 21
43.0
 31
0.0
  0
LINE
  5
4C
  8
0
  6
SLD-実線
 62
     7
 10
11.5
 20
50.0
 30
0.0
 11
198.5
 21
50.0
 31
0.0
  0
LINE
  5
4D
  8
0
  6
SLD-実線
 62
     7
 10
132.5
 20
50.0
 30
0.0
 11
132.5
 21
30.0
 31
0.0
  0
LINE
  5
4E
  8
0
  6
SLD-実線
 62
     7
 10
165.5
 20
43.0
 30
0.0
 11
165.5
 21
36.5
 31
0.0
  0
LINE
  5
4F
  8
0
  6
SLD-実線
 62
     7
 10
166.3770962523
 20
32.8184164906
 30
0.0
 11
184.106396469
 21
32.8184164906
 31
0.0
  0
LINE
  5
50
  8
0
  6
SLD-実線
 62
     7
 10
11.5
 20
30.0
 30
0.0
 11
198.5
 21
30.0
 31
0.0
  0
LINE
  5
51
  8
0
  6
SLD-実線
 62
     7
 10
11.5
 20
286.0
 30
0.0
 11
198.5
 21
286.0
 31
0.0
  0
LINE
  5
52
  8
0
  6
SLD-実線
 62
     7
 10
11.5
 20
11.0
 30
0.0
 11
198.5
 21
11.0
 31
0.0
  0
LINE
  5
53
  8
0
  6
SLD-実線
 62
     7
 10
11.5
 20
286.0
 30
0.0
 11
11.5
 21
11.0
 31
0.0
  0
LINE
  5
54
  8
0
  6
SLD-実線
 62
     7
 10
198.5
 20
286.0
 30
0.0
 11
198.5
 21
11.0
 31
0.0
  0
TEXT
  5
55
  8
0
  6
CONTINUOUS
 62
     7
 10
30.2246063006
 20
38.4994259356
 30
0.0
 40
2.9104166667
  1
SF-Y RELAY
 41
0.7
 11
30.2246063006
 21
37.4712919637
 31
0.0
 73
     1
  0
TEXT
  5
78
  8
FORMAT
 10
33.9130845025
 20
45.8263891731
 30
0.0
 40
2.9104166667
  1
AG1Y021(4 poles)
 41
0.7
 11
33.9130845025
 21
44.7982552013
 31
0.0
 73
     1
  0
TEXT
  5
79
  8
FORMAT
 10
147.2218353208
 20
45.8263891731
 30
0.0
 40
2.9104166667
  1
Dec.21.2012
 41
0.7
 11
147.2218353208
 21
44.7982552013
 31
0.0
 73
     1
  0
TEXT
  5
7A
  8
0
  6
CONTINUOUS
 62
     7
 10
80.2614591271
 20
6.6753222248
 30
0.0
 40
2.6458333333
  1
 (C) Panasonic Corporation 2012
 41
0.6723058774
 11
80.2614591271
 21
5.7406549777
 31
0.0
 73
     1
  0
TEXT
  5
7B
  8
0
  6
CONTINUOUS
 62
     7
 10
168.0947267662
 20
38.9480666799
 30
0.0
 40
3.175
  1
Unit     mm
 41
0.5553373
 11
168.0947267662
 21
37.8264659833
 31
0.0
 73
     1
  0
TEXT
  5
7C
  8
0
  6
CONTINUOUS
 62
     7
 10
134.6482684044
 20
32.004376709
 30
0.0
 40
3.175
  1
Tolerance
 41
0.7186718
 11
134.6482684044
 21
30.8827760124
 31
0.0
 73
     1
  0
TEXT
  5
7D
  8
0
  6
CONTINUOUS
 62
     7
 10
65.1821769029
 20
15.7367751529
 30
0.0
 40
4.2333333333
  1
Automation Controls Business Unit
 41
0.6860049
 11
65.1821769029
 21
14.2413075574
 31
0.0
 73
     1
  0
TEXT
  5
7E
  8
0
  6
CONTINUOUS
 62
     7
 10
13.9895552052
 20
45.3812251917
 30
0.0
 40
3.175
  1
Parts No.
 41
0.7186718
 11
13.9895552052
 21
44.2596244951
 31
0.0
 73
     1
  0
TEXT
  5
7F
  8
0
  6
CONTINUOUS
 62
     7
 10
13.9511090908
 20
38.5885140137
 30
0.0
 40
3.175
  1
Name
 41
0.7186718
 11
13.9511090908
 21
37.4669133171
 31
0.0
 73
     1
  0
TEXT
  5
80
  8
0
  6
CONTINUOUS
 62
     7
 10
134.3050931941
 20
45.7427213828
 30
0.0
 40
3.175
  1
Date
 41
0.7186718
 11
134.3050931941
 21
44.6211206862
 31
0.0
 73
     1
  0
TEXT
  5
81
  8
0
  6
CONTINUOUS
 62
     7
 10
134.3050931941
 20
38.9480666799
 30
0.0
 40
3.175
  1
Scale  1 : 1
 41
0.5988931667
 11
134.3050931941
 21
37.8264659833
 31
0.0
 73
     1
  0
TEXT
  5
82
  8
0
  6
CONTINUOUS
 62
     7
 10
80.2614591271
 20
23.080942541
 30
0.0
 40
4.2333333333
  1
Panasonic Corporation
 41
0.7186718
 11
80.2614591271
 21
21.5854749456
 31
0.0
 73
     1
  0
ARC
  5
83
  8
0
  6
SLD-実線
 62
     7
 10
118.7889874672
 20
220.8485608363
 30
0.0
 40
1.0
 50
90.0
 51
180.0
  0
LINE
  5
84
  8
0
  6
SLD-実線
 62
     7
 10
117.7889877206
 20
205.5485607413
 30
0.0
 11
117.7889877206
 21
220.8485605949
 31
0.0
  0
ARC
  5
85
  8
0
  6
SLD-実線
 62
     7
 10
118.7889874672
 20
205.5485608363
 30
0.0
 40
1.000000000000028
 50
180.0
 51
270.0
  0
LINE
  5
86
  8
0
  6
SLD-実線
 62
     7
 10
121.0889877027
 20
204.5485608102
 30
0.0
 11
118.7889878845
 21
204.5485608102
 31
0.0
  0
ARC
  5
87
  8
0
  6
SLD-実線
 62
     7
 10
121.0889874672
 20
204.3485608363
 30
0.0
 40
0.2000000000000028
 50
0.0
 51
90.0
  0
LINE
  5
88
  8
0
  6
SLD-実線
 62
     7
 10
147.78898705
 20
193.2485609138
 30
0.0
 11
118.7889878845
 21
193.2485609138
 31
0.0
  0
ARC
  5
89
  8
0
  6
SLD-実線
 62
     7
 10
147.7889874672
 20
194.2485608363
 30
0.0
 40
1.0
 50
270.0
 51
0.0
  0
LINE
  5
8A
  8
0
  6
SLD-実線
 62
     7
 10
148.7889872139
 20
220.8485605949
 30
0.0
 11
148.7889872139
 21
194.2485610777
 31
0.0
  0
CIRCLE
  5
8B
  8
0
  6
SLD-実線
 62
     7
 10
133.2889874672
 20
207.5485608363
 30
0.0
 40
1.200000000000017
  0
LINE
  5
8C
  8
0
  6
SLD-実線
 62
     7
 10
118.7889878845
 20
197.5485610598
 30
0.0
 11
121.0889877027
 21
197.5485610598
 31
0.0
  0
ARC
  5
8D
  8
0
  6
SLD-実線
 62
     7
 10
118.7889874672
 20
196.5485608363
 30
0.0
 40
1.0
 50
90.0
 51
180.0
  0
LINE
  5
8E
  8
0
  6
SLD-実線
 62
     7
 10
117.7889877206
 20
194.2485610777
 30
0.0
 11
117.7889877206
 21
196.5485608959
 31
0.0
  0
ARC
  5
8F
  8
0
  6
SLD-実線
 62
     7
 10
118.7889874672
 20
194.2485608363
 30
0.0
 40
1.0
 50
180.0
 51
270.0
  0
LINE
  5
90
  8
0
  6
SLD-実線
 62
     7
 10
118.7889878845
 20
221.8485607588
 30
0.0
 11
147.78898705
 21
221.8485607588
 31
0.0
  0
CIRCLE
  5
91
  8
0
  6
SLD-実線
 62
     7
 10
133.2889874672
 20
207.5485608363
 30
0.0
 40
1.0
  0
ARC
  5
92
  8
0
  6
SLD-実線
 62
     7
 10
147.7889874672
 20
220.8485608363
 30
0.0
 40
1.0
 50
0.0
 51
90.0
  0
LINE
  5
93
  8
0
  6
SLD-実線
 62
     7
 10
121.2889873629
 20
197.74856072
 30
0.0
 11
121.2889873629
 21
204.3485609171
 31
0.0
  0
ARC
  5
94
  8
0
  6
SLD-実線
 62
     7
 10
121.0889874672
 20
197.7485608363
 30
0.0
 40
0.2000000000000171
 50
270.0
 51
0.0
  0
CIRCLE
  5
95
  8
0
  6
SLD-実線
 62
     7
 10
119.7889874672
 20
199.5485608363
 30
0.0
 40
0.4250000000001819
  0
CIRCLE
  5
96
  8
0
  6
SLD-実線
 62
     7
 10
119.7889874672
 20
199.5485608363
 30
0.0
 40
0.5
  0
CIRCLE
  5
97
  8
0
  6
SLD-実線
 62
     7
 10
119.7889874672
 20
202.5485608363
 30
0.0
 40
1.25
  0
LINE
  5
98
  8
0
  6
SLD-実線
 62
     7
 10
117.7889877206
 20
204.8852357836
 30
0.0
 11
117.7889877206
 21
205.5485607413
 31
0.0
  0
LINE
  5
99
  8
0
  6
SLD-実線
 62
     7
 10
117.7889877206
 20
196.5485608959
 30
0.0
 11
117.7889877206
 21
197.2118860864
 31
0.0
  0
LINE
  5
9A
  8
0
  6
SLD-実線
 62
     7
 10
117.7889877206
 20
204.8852357836
 30
0.0
 11
117.7889877206
 21
197.2118860864
 31
0.0
  0
LINE
  5
9B
  8
0
  6
SLD-実線
 62
     7
 10
130.2809873802
 20
138.835483937
 30
0.0
 11
130.3749873975
 21
138.6726710558
 31
0.0
  0
LINE
  5
9C
  8
0
  6
SLD-実線
 62
     7
 10
130.6949875058
 20
138.6726710558
 30
0.0
 11
130.7889875231
 21
138.835483937
 31
0.0
  0
LINE
  5
9D
  8
0
  6
SLD-実線
 62
     7
 10
130.2809873802
 20
142.3300514076
 30
0.0
 11
130.2809873802
 21
138.835483937
 31
0.0
  0
LINE
  5
9E
  8
0
  6
SLD-実線
 62
     7
 10
130.7889875231
 20
138.835483937
 30
0.0
 11
130.7889875231
 21
142.3300514076
 31
0.0
  0
LINE
  5
9F
  8
0
  6
SLD-実線
 62
     7
 10
120.948987568
 20
138.5300515763
 30
0.0
 11
121.2289878374
 21
138.5300515763
 31
0.0
  0
LINE
  5
A0
  8
0
  6
SLD-実線
 62
     7
 10
125.248987714
 20
138.5300515763
 30
0.0
 11
125.5289875177
 21
138.5300515763
 31
0.0
  0
LINE
  5
A1
  8
0
  6
SLD-実線
 62
     7
 10
145.3489870971
 20
138.5300515763
 30
0.0
 11
145.6289873665
 21
138.5300515763
 31
0.0
  0
LINE
  5
A2
  8
0
  6
SLD-実線
 62
     7
 10
141.0489874167
 20
138.5300515763
 30
0.0
 11
141.3289872205
 21
138.5300515763
 31
0.0
  0
LINE
  5
A3
  8
0
  6
SLD-実線
 62
     7
 10
142.7389872467
 20
142.3300514076
 30
0.0
 11
147.78898705
 21
142.3300514076
 31
0.0
  0
LINE
  5
A4
  8
0
  6
SLD-実線
 62
     7
 10
142.4389877563
 20
142.0300512187
 30
0.0
 11
142.7389872467
 21
142.3300514076
 31
0.0
  0
LINE
  5
A5
  8
0
  6
SLD-実線
 62
     7
 10
140.5389872586
 20
142.0300512187
 30
0.0
 11
142.4389877563
 21
142.0300512187
 31
0.0
  0
LINE
  5
A6
  8
0
  6
SLD-実線
 62
     7
 10
140.2389873026
 20
142.3300514076
 30
0.0
 11
140.5389872586
 21
142.0300512187
 31
0.0
  0
LINE
  5
A7
  8
0
  6
SLD-実線
 62
     7
 10
126.3389876319
 20
142.3300514076
 30
0.0
 11
140.2389873026
 21
142.3300514076
 31
0.0
  0
LINE
  5
A8
  8
0
  6
SLD-実線
 62
     7
 10
126.0389876758
 20
142.0300512187
 30
0.0
 11
126.3389876319
 21
142.3300514076
 31
0.0
  0
LINE
  5
A9
  8
0
  6
SLD-実線
 62
     7
 10
124.1389871781
 20
142.0300512187
 30
0.0
 11
126.0389876758
 21
142.0300512187
 31
0.0
  0
LINE
  5
AA
  8
0
  6
SLD-実線
 62
     7
 10
123.8389876878
 20
142.3300514076
 30
0.0
 11
124.1389871781
 21
142.0300512187
 31
0.0
  0
LINE
  5
AB
  8
0
  6
SLD-実線
 62
     7
 10
118.7889878845
 20
142.3300514076
 30
0.0
 11
123.8389876878
 21
142.3300514076
 31
0.0
  0
LINE
  5
AC
  8
0
  6
SLD-実線
 62
     7
 10
118.7889878845
 20
142.3300514076
 30
0.0
 11
117.7889877206
 21
142.3300514076
 31
0.0
  0
LINE
  5
AD
  8
0
  6
SLD-実線
 62
     7
 10
117.7889877206
 20
142.3300514076
 30
0.0
 11
117.7889877206
 21
156.0300511852
 31
0.0
  0
LINE
  5
AE
  8
0
  6
SLD-実線
 62
     7
 10
118.2889878025
 20
156.5300512671
 30
0.0
 11
118.7889878845
 21
156.5300512671
 31
0.0
  0
ARC
  5
AF
  8
0
  6
SLD-実線
 62
     7
 10
118.2889874672
 20
156.0300514087
 30
0.0
 40
0.5
 50
90.0
 51
180.0
  0
LINE
  5
B0
  8
0
  6
SLD-実線
 62
     7
 10
118.7889878845
 20
156.5300512671
 30
0.0
 11
147.78898705
 21
156.5300512671
 31
0.0
  0
LINE
  5
B1
  8
0
  6
SLD-実線
 62
     7
 10
148.7889872139
 20
156.0300511852
 30
0.0
 11
148.7889872139
 21
142.3300514076
 31
0.0
  0
LINE
  5
B2
  8
0
  6
SLD-実線
 62
     7
 10
148.7889872139
 20
142.3300514076
 30
0.0
 11
147.78898705
 21
142.3300514076
 31
0.0
  0
LINE
  5
B3
  8
0
  6
SLD-実線
 62
     7
 10
147.78898705
 20
156.5300512671
 30
0.0
 11
148.288987132
 21
156.5300512671
 31
0.0
  0
ARC
  5
B4
  8
0
  6
SLD-実線
 62
     7
 10
148.2889874672
 20
156.0300514087
 30
0.0
 40
0.5
 50
0.0
 51
90.0
  0
LINE
  5
B5
  8
0
  6
SLD-実線
 62
     7
 10
130.6949875058
 20
138.6726710558
 30
0.0
 11
130.3749873975
 21
138.6726710558
 31
0.0
  0
LINE
  5
B6
  8
0
  6
SLD-実線
 62
     7
 10
130.2809873802
 20
138.835483937
 30
0.0
 11
130.7889875231
 21
138.835483937
 31
0.0
  0
LINE
  5
B7
  8
0
  6
SLD-実線
 62
     7
 10
120.8489877378
 20
139.0960768409
 30
0.0
 11
120.8489877378
 21
142.3300514076
 31
0.0
  0
LINE
  5
B8
  8
0
  6
SLD-実線
 62
     7
 10
121.3289876675
 20
142.3300514076
 30
0.0
 11
121.3289876675
 21
139.0960768409
 31
0.0
  0
LINE
  5
B9
  8
0
  6
SLD-実線
 62
     7
 10
121.3289876675
 20
139.0960768409
 30
0.0
 11
120.8489877378
 21
139.0960768409
 31
0.0
  0
LINE
  5
BA
  8
0
  6
SLD-実線
 62
     7
 10
121.3289876675
 20
138.9300513625
 30
0.0
 11
121.2664875408
 21
138.6800513215
 31
0.0
  0
LINE
  5
BB
  8
0
  6
SLD-実線
 62
     7
 10
120.9114878645
 20
138.6800513215
 30
0.0
 11
120.8489877378
 21
138.9300513625
 31
0.0
  0
LINE
  5
BC
  8
0
  6
SLD-実線
 62
     7
 10
120.8489877378
 20
138.9300513625
 30
0.0
 11
120.8489877378
 21
139.0960768409
 31
0.0
  0
LINE
  5
BD
  8
0
  6
SLD-実線
 62
     7
 10
121.3289876675
 20
138.9300513625
 30
0.0
 11
121.3289876675
 21
139.0960768409
 31
0.0
  0
POLYLINE
  5
BE
  8
0
  6
SLD-実線
 62
     7
 66
     1
 10
0.0
 20
0.0
 30
0.0
  0
VERTEX
  5
127
  8
0
  6
SLD-実線
 62
     7
 10
120.9114878645
 20
138.6800513215
 30
0.0
  0
VERTEX
  5
128
  8
0
  6
SLD-実線
 62
     7
 10
120.9221962115
 20
138.6372151397
 30
0.0
  0
VERTEX
  5
129
  8
0
  6
SLD-実線
 62
     7
 10
120.9314405193
 20
138.6002379082
 30
0.0
  0
VERTEX
  5
12A
  8
0
  6
SLD-実線
 62
     7
 10
120.9389395287
 20
138.5702437334
 30
0.0
  0
VERTEX
  5
12B
  8
0
  6
SLD-実線
 62
     7
 10
120.9444641342
 20
138.5481434487
 30
0.0
  0
VERTEX
  5
12C
  8
0
  6
SLD-実線
 62
     7
 10
120.9478476291
 20
138.5346090034
 30
0.0
  0
VERTEX
  5
12D
  8
0
  6
SLD-実線
 62
     7
 10
120.948987568
 20
138.5300515763
 30
0.0
  0
SEQEND
  5
12E
  8
0
  6
SLD-実線
 62
     7
  0
POLYLINE
  5
BF
  8
0
  6
SLD-実線
 62
     7
 66
     1
 10
0.0
 20
0.0
 30
0.0
  0
VERTEX
  5
12F
  8
0
  6
SLD-実線
 62
     7
 10
121.2289878374
 20
138.5300515763
 30
0.0
  0
VERTEX
  5
130
  8
0
  6
SLD-実線
 62
     7
 10
121.2301268449
 20
138.5346090034
 30
0.0
  0
VERTEX
  5
131
  8
0
  6
SLD-実線
 62
     7
 10
121.2335103398
 20
138.5481434487
 30
0.0
  0
VERTEX
  5
132
  8
0
  6
SLD-実線
 62
     7
 10
121.2390358766
 20
138.5702437334
 30
0.0
  0
VERTEX
  5
133
  8
0
  6
SLD-実線
 62
     7
 10
121.2465339547
 20
138.6002379082
 30
0.0
  0
VERTEX
  5
134
  8
0
  6
SLD-実線
 62
     7
 10
121.2557782626
 20
138.6372151397
 30
0.0
  0
VERTEX
  5
135
  8
0
  6
SLD-実線
 62
     7
 10
121.2664875408
 20
138.6800513215
 30
0.0
  0
SEQEND
  5
136
  8
0
  6
SLD-実線
 62
     7
  0
LINE
  5
C0
  8
0
  6
SLD-実線
 62
     7
 10
125.6289873479
 20
142.0300512187
 30
0.0
 11
125.6289873479
 21
139.0960768409
 31
0.0
  0
LINE
  5
C1
  8
0
  6
SLD-実線
 62
     7
 10
125.1489878839
 20
139.0960768409
 30
0.0
 11
125.6289873479
 21
139.0960768409
 31
0.0
  0
LINE
  5
C2
  8
0
  6
SLD-実線
 62
     7
 10
125.1489878839
 20
139.0960768409
 30
0.0
 11
125.1489878839
 21
142.0300512187
 31
0.0
  0
LINE
  5
C3
  8
0
  6
SLD-実線
 62
     7
 10
125.1489878839
 20
139.0960768409
 30
0.0
 11
125.1489878839
 21
138.9300513625
 31
0.0
  0
LINE
  5
C4
  8
0
  6
SLD-実線
 62
     7
 10
125.6289873479
 20
139.0960768409
 30
0.0
 11
125.6289873479
 21
138.9300513625
 31
0.0
  0
LINE
  5
C5
  8
0
  6
SLD-実線
 62
     7
 10
125.5664876869
 20
138.6800513215
 30
0.0
 11
125.6289873479
 21
138.9300513625
 31
0.0
  0
LINE
  5
C6
  8
0
  6
SLD-実線
 62
     7
 10
125.1489878839
 20
138.9300513625
 30
0.0
 11
125.2114870792
 21
138.6800513215
 31
0.0
  0
POLYLINE
  5
C7
  8
0
  6
SLD-実線
 62
     7
 66
     1
 10
0.0
 20
0.0
 30
0.0
  0
VERTEX
  5
137
  8
0
  6
SLD-実線
 62
     7
 10
125.5289875177
 20
138.5300515763
 30
0.0
  0
VERTEX
  5
138
  8
0
  6
SLD-実線
 62
     7
 10
125.5301269909
 20
138.5346090034
 30
0.0
  0
VERTEX
  5
139
  8
0
  6
SLD-実線
 62
     7
 10
125.5335104858
 20
138.5481434487
 30
0.0
  0
VERTEX
  5
13A
  8
0
  6
SLD-実線
 62
     7
 10
125.539035557
 20
138.5702437334
 30
0.0
  0
VERTEX
  5
13B
  8
0
  6
SLD-実線
 62
     7
 10
125.5465341007
 20
138.6002379082
 30
0.0
  0
VERTEX
  5
13C
  8
0
  6
SLD-実線
 62
     7
 10
125.5557784086
 20
138.6372151397
 30
0.0
  0
VERTEX
  5
13D
  8
0
  6
SLD-実線
 62
     7
 10
125.5664876869
 20
138.6800513215
 30
0.0
  0
SEQEND
  5
13E
  8
0
  6
SLD-実線
 62
     7
  0
POLYLINE
  5
C8
  8
0
  6
SLD-実線
 62
     7
 66
     1
 10
0.0
 20
0.0
 30
0.0
  0
VERTEX
  5
13F
  8
0
  6
SLD-実線
 62
     7
 10
125.2114870792
 20
138.6800513215
 30
0.0
  0
VERTEX
  5
140
  8
0
  6
SLD-実線
 62
     7
 10
125.223101603
 20
138.6335932262
 30
0.0
  0
VERTEX
  5
141
  8
0
  6
SLD-実線
 62
     7
 10
125.232941026
 20
138.5942355342
 30
0.0
  0
VERTEX
  5
142
  8
0
  6
SLD-実線
 62
     7
 10
125.2406505143
 20
138.5634008408
 30
0.0
  0
VERTEX
  5
143
  8
0
  6
SLD-実線
 62
     7
 10
125.2459497398
 20
138.5422034733
 30
0.0
  0
VERTEX
  5
144
  8
0
  6
SLD-実線
 62
     7
 10
125.2486477813
 20
138.5314099103
 30
0.0
  0
VERTEX
  5
145
  8
0
  6
SLD-実線
 62
     7
 10
125.248987714
 20
138.5300515763
 30
0.0
  0
SEQEND
  5
146
  8
0
  6
SLD-実線
 62
     7
  0
LINE
  5
C9
  8
0
  6
SLD-実線
 62
     7
 10
145.7289871966
 20
139.0960768409
 30
0.0
 11
145.248987267
 21
139.0960768409
 31
0.0
  0
LINE
  5
CA
  8
0
  6
SLD-実線
 62
     7
 10
145.248987267
 20
139.0960768409
 30
0.0
 11
145.248987267
 21
142.3300514076
 31
0.0
  0
LINE
  5
CB
  8
0
  6
SLD-実線
 62
     7
 10
145.7289871966
 20
142.3300514076
 30
0.0
 11
145.7289871966
 21
139.0960768409
 31
0.0
  0
LINE
  5
CC
  8
0
  6
SLD-実線
 62
     7
 10
145.248987267
 20
138.9300513625
 30
0.0
 11
145.248987267
 21
139.0960768409
 31
0.0
  0
LINE
  5
CD
  8
0
  6
SLD-実線
 62
     7
 10
145.7289871966
 20
139.0960768409
 30
0.0
 11
145.7289871966
 21
138.9300513625
 31
0.0
  0
LINE
  5
CE
  8
0
  6
SLD-実線
 62
     7
 10
145.7289871966
 20
138.9300513625
 30
0.0
 11
145.66648707
 21
138.6800513215
 31
0.0
  0
LINE
  5
CF
  8
0
  6
SLD-実線
 62
     7
 10
145.3114873936
 20
138.6800513215
 30
0.0
 11
145.248987267
 21
138.9300513625
 31
0.0
  0
POLYLINE
  5
D0
  8
0
  6
SLD-実線
 62
     7
 66
     1
 10
0.0
 20
0.0
 30
0.0
  0
VERTEX
  5
147
  8
0
  6
SLD-実線
 62
     7
 10
145.3489870971
 20
138.5300515763
 30
0.0
  0
VERTEX
  5
148
  8
0
  6
SLD-実線
 62
     7
 10
145.3478480896
 20
138.5346090034
 30
0.0
  0
VERTEX
  5
149
  8
0
  6
SLD-実線
 62
     7
 10
145.3444645947
 20
138.5481434487
 30
0.0
  0
VERTEX
  5
14A
  8
0
  6
SLD-実線
 62
     7
 10
145.3389390578
 20
138.5702437334
 30
0.0
  0
VERTEX
  5
14B
  8
0
  6
SLD-実線
 62
     7
 10
145.3314409798
 20
138.6002379082
 30
0.0
  0
VERTEX
  5
14C
  8
0
  6
SLD-実線
 62
     7
 10
145.3221966719
 20
138.6372151397
 30
0.0
  0
VERTEX
  5
14D
  8
0
  6
SLD-実線
 62
     7
 10
145.3114873936
 20
138.6800513215
 30
0.0
  0
SEQEND
  5
14E
  8
0
  6
SLD-実線
 62
     7
  0
POLYLINE
  5
D1
  8
0
  6
SLD-実線
 62
     7
 66
     1
 10
0.0
 20
0.0
 30
0.0
  0
VERTEX
  5
14F
  8
0
  6
SLD-実線
 62
     7
 10
145.66648707
 20
138.6800513215
 30
0.0
  0
VERTEX
  5
150
  8
0
  6
SLD-実線
 62
     7
 10
145.6548725461
 20
138.6335932262
 30
0.0
  0
VERTEX
  5
151
  8
0
  6
SLD-実線
 62
     7
 10
145.6450331231
 20
138.5942355342
 30
0.0
  0
VERTEX
  5
152
  8
0
  6
SLD-実線
 62
     7
 10
145.6373245662
 20
138.5634008408
 30
0.0
  0
VERTEX
  5
153
  8
0
  6
SLD-実線
 62
     7
 10
145.6320253407
 20
138.5422034733
 30
0.0
  0
VERTEX
  5
154
  8
0
  6
SLD-実線
 62
     7
 10
145.6293272992
 20
138.5314099103
 30
0.0
  0
VERTEX
  5
155
  8
0
  6
SLD-実線
 62
     7
 10
145.6289873665
 20
138.5300515763
 30
0.0
  0
SEQEND
  5
156
  8
0
  6
SLD-実線
 62
     7
  0
LINE
  5
D2
  8
0
  6
SLD-実線
 62
     7
 10
141.4289870506
 20
139.0960768409
 30
0.0
 11
140.9489875866
 21
139.0960768409
 31
0.0
  0
LINE
  5
D3
  8
0
  6
SLD-実線
 62
     7
 10
140.9489875866
 20
139.0960768409
 30
0.0
 11
140.9489875866
 21
142.0300512187
 31
0.0
  0
LINE
  5
D4
  8
0
  6
SLD-実線
 62
     7
 10
141.4289870506
 20
142.0300512187
 30
0.0
 11
141.4289870506
 21
139.0960768409
 31
0.0
  0
LINE
  5
D5
  8
0
  6
SLD-実線
 62
     7
 10
141.4289870506
 20
139.0960768409
 30
0.0
 11
141.4289870506
 21
138.9300513625
 31
0.0
  0
LINE
  5
D6
  8
0
  6
SLD-実線
 62
     7
 10
141.4289870506
 20
138.9300513625
 30
0.0
 11
141.3664878553
 21
138.6800513215
 31
0.0
  0
LINE
  5
D7
  8
0
  6
SLD-実線
 62
     7
 10
141.0114872476
 20
138.6800513215
 30
0.0
 11
140.9489875866
 21
138.9300513625
 31
0.0
  0
LINE
  5
D8
  8
0
  6
SLD-実線
 62
     7
 10
140.9489875866
 20
139.0960768409
 30
0.0
 11
140.9489875866
 21
138.9300513625
 31
0.0
  0
POLYLINE
  5
D9
  8
0
  6
SLD-実線
 62
     7
 66
     1
 10
0.0
 20
0.0
 30
0.0
  0
VERTEX
  5
157
  8
0
  6
SLD-実線
 62
     7
 10
141.3664878553
 20
138.6800513215
 30
0.0
  0
VERTEX
  5
158
  8
0
  6
SLD-実線
 62
     7
 10
141.355778577
 20
138.6372151397
 30
0.0
  0
VERTEX
  5
159
  8
0
  6
SLD-実線
 62
     7
 10
141.3465342691
 20
138.6002379082
 30
0.0
  0
VERTEX
  5
15A
  8
0
  6
SLD-実線
 62
     7
 10
141.3390352597
 20
138.5702437334
 30
0.0
  0
VERTEX
  5
15B
  8
0
  6
SLD-実線
 62
     7
 10
141.3335106542
 20
138.5481434487
 30
0.0
  0
VERTEX
  5
15C
  8
0
  6
SLD-実線
 62
     7
 10
141.3301271593
 20
138.5346090034
 30
0.0
  0
VERTEX
  5
15D
  8
0
  6
SLD-実線
 62
     7
 10
141.3289872205
 20
138.5300515763
 30
0.0
  0
SEQEND
  5
15E
  8
0
  6
SLD-実線
 62
     7
  0
POLYLINE
  5
DA
  8
0
  6
SLD-実線
 62
     7
 66
     1
 10
0.0
 20
0.0
 30
0.0
  0
VERTEX
  5
15F
  8
0
  6
SLD-実線
 62
     7
 10
141.0489874167
 20
138.5300515763
 30
0.0
  0
VERTEX
  5
160
  8
0
  6
SLD-実線
 62
     7
 10
141.0478479435
 20
138.5346090034
 30
0.0
  0
VERTEX
  5
161
  8
0
  6
SLD-実線
 62
     7
 10
141.0444644486
 20
138.5481434487
 30
0.0
  0
VERTEX
  5
162
  8
0
  6
SLD-実線
 62
     7
 10
141.0389393775
 20
138.5702437334
 30
0.0
  0
VERTEX
  5
163
  8
0
  6
SLD-実線
 62
     7
 10
141.0314408337
 20
138.6002379082
 30
0.0
  0
VERTEX
  5
164
  8
0
  6
SLD-実線
 62
     7
 10
141.0221965259
 20
138.6372151397
 30
0.0
  0
VERTEX
  5
165
  8
0
  6
SLD-実線
 62
     7
 10
141.0114872476
 20
138.6800513215
 30
0.0
  0
SEQEND
  5
166
  8
0
  6
SLD-実線
 62
     7
  0
ARC
  5
DB
  8
0
  6
SLD-実線
 62
     7
 10
74.9016352892
 20
155.8300514087
 30
0.0
 40
0.2000000000000171
 50
90.0
 51
180.0
  0
ARC
  5
DC
  8
0
  6
SLD-実線
 62
     7
 10
77.0016352892
 20
155.8300514087
 30
0.0
 40
0.2000000000000171
 50
0.0
 51
90.0
  0
ARC
  5
DD
  8
0
  6
SLD-実線
 62
     7
 10
74.9016352892
 20
155.8300514087
 30
0.0
 40
0.2000000000000171
 50
180.0
 51
270.0
  0
ARC
  5
DE
  8
0
  6
SLD-実線
 62
     7
 10
77.0016352892
 20
155.8300514087
 30
0.0
 40
0.2000000000000171
 50
270.0
 51
0.0
  0
ARC
  5
DF
  8
0
  6
SLD-実線
 62
     7
 10
77.036841517
 20
155.4300514087
 30
0.0
 40
0.2000000000000046
 50
184.398705355
 51
270.0
  0
ARC
  5
E0
  8
0
  6
SLD-実線
 62
     7
 10
74.8664290613
 20
155.4300514087
 30
0.0
 40
0.1999999999999904
 50
270.0
 51
355.601294645
  0
LINE
  5
E1
  8
0
  6
SLD-実線
 62
     7
 10
76.8374305136
 20
155.4147123903
 30
0.0
 11
76.8208660103
 21
155.6300518647
 31
0.0
  0
LINE
  5
E2
  8
0
  6
SLD-実線
 62
     7
 10
75.0824043445
 20
155.6300518647
 30
0.0
 11
75.0658398412
 21
155.4147123903
 31
0.0
  0
LINE
  5
E3
  8
0
  6
SLD-実線
 62
     7
 10
79.4516357511
 20
155.2300516129
 30
0.0
 11
79.3766354128
 21
156.2300517768
 31
0.0
  0
LINE
  5
E4
  8
0
  6
SLD-実線
 62
     7
 10
78.5266354598
 20
156.2300517768
 30
0.0
 11
78.4516351215
 21
155.2300516129
 31
0.0
  0
LINE
  5
E5
  8
0
  6
SLD-実線
 62
     7
 10
57.1516354486
 20
156.5300512671
 30
0.0
 11
57.6516355306
 21
156.5300512671
 31
0.0
  0
ARC
  5
E6
  8
0
  6
SLD-実線
 62
     7
 10
57.1516352892
 20
156.0300514087
 30
0.0
 40
0.5
 50
90.0
 51
180.0
  0
LINE
  5
E7
  8
0
  6
SLD-実線
 62
     7
 10
57.6516355306
 20
142.3300514076
 30
0.0
 11
56.6516353667
 21
142.3300514076
 31
0.0
  0
LINE
  5
E8
  8
0
  6
SLD-実線
 62
     7
 10
56.6516353667
 20
142.3300514076
 30
0.0
 11
56.6516353667
 21
156.0300511852
 31
0.0
  0
LINE
  5
E9
  8
0
  6
SLD-実線
 62
     7
 10
57.6516355306
 20
156.5300512671
 30
0.0
 11
72.9516353842
 21
156.5300512671
 31
0.0
  0
LINE
  5
EA
  8
0
  6
SLD-実線
 62
     7
 10
57.6516355306
 20
142.3300514076
 30
0.0
 11
84.2516350478
 21
142.3300514076
 31
0.0
  0
LINE
  5
EB
  8
0
  6
SLD-実線
 62
     7
 10
73.9516353152
 20
156.0300511852
 30
0.0
 11
73.9516353152
 21
155.4300512731
 31
0.0
  0
LINE
  5
EC
  8
0
  6
SLD-実線
 62
     7
 10
72.9516353842
 20
156.5300512671
 30
0.0
 11
73.4516352333
 21
156.5300512671
 31
0.0
  0
ARC
  5
ED
  8
0
  6
SLD-実線
 62
     7
 10
73.4516352892
 20
156.0300514087
 30
0.0
 40
0.5
 50
0.0
 51
90.0
  0
ARC
  5
EE
  8
0
  6
SLD-実線
 62
     7
 10
74.1516352892
 20
155.4300514087
 30
0.0
 40
0.2000000000000028
 50
180.0
 51
270.0
  0
ARC
  5
EF
  8
0
  6
SLD-実線
 62
     7
 10
80.7516352892
 20
155.4300514087
 30
0.0
 40
0.2000000000000028
 50
270.0
 51
0.0
  0
LINE
  5
F0
  8
0
  6
SLD-実線
 62
     7
 10
80.9516350656
 20
155.4300512731
 30
0.0
 11
80.9516350656
 21
156.0300511852
 31
0.0
  0
LINE
  5
F1
  8
0
  6
SLD-実線
 62
     7
 10
81.4516351476
 20
156.5300512671
 30
0.0
 11
81.9516352296
 21
156.5300512671
 31
0.0
  0
ARC
  5
F2
  8
0
  6
SLD-実線
 62
     7
 10
81.4516352892
 20
156.0300514087
 30
0.0
 40
0.5
 50
90.0
 51
180.0
  0
LINE
  5
F3
  8
0
  6
SLD-実線
 62
     7
 10
81.9516352296
 20
156.5300512671
 30
0.0
 11
84.2516350478
 21
156.5300512671
 31
0.0
  0
LINE
  5
F4
  8
0
  6
SLD-実線
 62
     7
 10
84.2516350478
 20
156.5300512671
 30
0.0
 11
84.7516351297
 21
156.5300512671
 31
0.0
  0
ARC
  5
F5
  8
0
  6
SLD-実線
 62
     7
 10
84.7516352892
 20
156.0300514087
 30
0.0
 40
0.5
 50
0.0
 51
90.0
  0
LINE
  5
F6
  8
0
  6
SLD-実線
 62
     7
 10
85.2516352117
 20
156.0300511852
 30
0.0
 11
85.2516352117
 21
142.3300514076
 31
0.0
  0
LINE
  5
F7
  8
0
  6
SLD-実線
 62
     7
 10
85.2516352117
 20
142.3300514076
 30
0.0
 11
84.2516350478
 21
142.3300514076
 31
0.0
  0
LINE
  5
F8
  8
0
  6
SLD-実線
 62
     7
 10
74.9016355641
 20
156.0300511852
 30
0.0
 11
77.0016352564
 21
156.0300511852
 31
0.0
  0
LINE
  5
F9
  8
0
  6
SLD-実線
 62
     7
 10
77.0016352564
 20
155.6300518647
 30
0.0
 11
74.9016350984
 21
155.6300518647
 31
0.0
  0
LINE
  5
FA
  8
0
  6
SLD-実線
 62
     7
 10
78.5266354598
 20
156.2300517768
 30
0.0
 11
79.3766354128
 21
156.2300517768
 31
0.0
  0
LINE
  5
FB
  8
0
  6
SLD-実線
 62
     7
 10
74.1516352083
 20
156.5300512671
 30
0.0
 11
73.4516352333
 21
156.5300512671
 31
0.0
  0
LINE
  5
FC
  8
0
  6
SLD-実線
 62
     7
 10
81.4516351476
 20
156.5300512671
 30
0.0
 11
80.7516354054
 21
156.5300512671
 31
0.0
  0
LINE
  5
FD
  8
0
  6
SLD-実線
 62
     7
 10
74.1516352083
 20
156.5300512671
 30
0.0
 11
80.7516354054
 21
156.5300512671
 31
0.0
  0
LINE
  5
FE
  8
0
  6
SLD-実線
 62
     7
 10
57.0016357034
 20
142.0300512187
 30
0.0
 11
57.0016357034
 21
142.3300514076
 31
0.0
  0
LINE
  5
FF
  8
0
  6
SLD-実線
 62
     7
 10
56.6516353667
 20
142.0300512187
 30
0.0
 11
57.0016357034
 21
142.0300512187
 31
0.0
  0
LINE
  5
100
  8
0
  6
SLD-実線
 62
     7
 10
56.6516353667
 20
142.3300514076
 30
0.0
 11
56.6516353667
 21
142.0300512187
 31
0.0
  0
LINE
  5
101
  8
0
  6
SLD-実線
 62
     7
 10
57.0016357034
 20
142.0300512187
 30
0.0
 11
57.0916349917
 21
142.3300514076
 31
0.0
  0
LINE
  5
102
  8
0
  6
SLD-実線
 62
     7
 10
84.9016348749
 20
142.0300512187
 30
0.0
 11
85.2516352117
 21
142.0300512187
 31
0.0
  0
LINE
  5
103
  8
0
  6
SLD-実線
 62
     7
 10
84.9016348749
 20
142.3300514076
 30
0.0
 11
84.9016348749
 21
142.0300512187
 31
0.0
  0
LINE
  5
104
  8
0
  6
SLD-実線
 62
     7
 10
85.2516352117
 20
142.3300514076
 30
0.0
 11
85.2516352117
 21
142.0300512187
 31
0.0
  0
LINE
  5
105
  8
0
  6
SLD-実線
 62
     7
 10
84.8116355866
 20
142.3300514076
 30
0.0
 11
84.9016348749
 21
142.0300512187
 31
0.0
  0
LINE
  5
106
  8
0
  6
SLD-実線
 62
     7
 10
76.7016353003
 20
139.0960768409
 30
0.0
 11
76.7016353003
 21
142.3300514076
 31
0.0
  0
LINE
  5
107
  8
0
  6
SLD-実線
 62
     7
 10
76.6057803213
 20
138.9300513625
 30
0.0
 11
76.7016353003
 21
139.0960768409
 31
0.0
  0
LINE
  5
108
  8
0
  6
SLD-実線
 62
     7
 10
76.6057803213
 20
138.9300513625
 30
0.0
 11
75.7974901154
 21
138.9300513625
 31
0.0
  0
LINE
  5
109
  8
0
  6
SLD-実線
 62
     7
 10
75.7016351364
 20
139.0960768409
 30
0.0
 11
75.7974901154
 21
138.9300513625
 31
0.0
  0
LINE
  5
10A
  8
0
  6
SLD-実線
 62
     7
 10
75.7016351364
 20
139.0960768409
 30
0.0
 11
75.7016351364
 21
142.3300514076
 31
0.0
  0
LINE
  5
10B
  8
0
  6
SLD-実線
 62
     7
 10
76.4614430174
 20
138.6800513215
 30
0.0
 11
76.6057803213
 21
138.9300513625
 31
0.0
  0
ARC
  5
10C
  8
0
  6
SLD-実線
 62
     7
 10
76.2016354512
 20
138.830051445
 30
0.0
 40
0.3000000141542976
 50
210.0000256733
 51
329.9999743267
  0
LINE
  5
10D
  8
0
  6
SLD-実線
 62
     7
 10
75.7974901154
 20
138.9300513625
 30
0.0
 11
75.941827885
 21
138.6800513215
 31
0.0
  0
LINE
  5
10E
  8
0
  6
SLD-実線
 62
     7
 10
82.9516353935
 20
139.0960768409
 30
0.0
 11
82.8557808801
 21
138.9300513625
 31
0.0
  0
LINE
  5
10F
  8
0
  6
SLD-実線
 62
     7
 10
82.0474897429
 20
138.9300513625
 30
0.0
 11
82.8557808801
 21
138.9300513625
 31
0.0
  0
LINE
  5
110
  8
0
  6
SLD-実線
 62
     7
 10
82.0474897429
 20
138.9300513625
 30
0.0
 11
81.9516352296
 21
139.0960768409
 31
0.0
  0
LINE
  5
111
  8
0
  6
SLD-実線
 62
     7
 10
81.9516352296
 20
139.0960768409
 30
0.0
 11
81.9516352296
 21
142.3300514076
 31
0.0
  0
LINE
  5
112
  8
0
  6
SLD-実線
 62
     7
 10
82.9516353935
 20
139.0960768409
 30
0.0
 11
82.9516353935
 21
142.3300514076
 31
0.0
  0
ARC
  5
113
  8
0
  6
SLD-実線
 62
     7
 10
82.4516353115
 20
138.8300509881
 30
0.0
 40
0.2999995840307644
 50
209.9999723243
 51
330.0000276757
  0
LINE
  5
114
  8
0
  6
SLD-実線
 62
     7
 10
82.8557808801
 20
138.9300513625
 30
0.0
 11
82.7114426449
 21
138.6800513215
 31
0.0
  0
LINE
  5
115
  8
0
  6
SLD-実線
 62
     7
 10
82.1918279782
 20
138.6800513215
 30
0.0
 11
82.0474897429
 21
138.9300513625
 31
0.0
  0
LINE
  5
116
  8
0
  6
SLD-実線
 62
     7
 10
66.1057804629
 20
138.9300513625
 30
0.0
 11
66.2016354419
 21
139.0960768409
 31
0.0
  0
LINE
  5
117
  8
0
  6
SLD-実線
 62
     7
 10
65.297490257
 20
138.9300513625
 30
0.0
 11
66.1057804629
 21
138.9300513625
 31
0.0
  0
LINE
  5
118
  8
0
  6
SLD-実線
 62
     7
 10
65.201635278
 20
139.0960768409
 30
0.0
 11
65.297490257
 21
138.9300513625
 31
0.0
  0
LINE
  5
119
  8
0
  6
SLD-実線
 62
     7
 10
65.201635278
 20
139.0960768409
 30
0.0
 11
65.201635278
 21
142.3300514076
 31
0.0
  0
LINE
  5
11A
  8
0
  6
SLD-実線
 62
     7
 10
66.2016354419
 20
139.0960768409
 30
0.0
 11
66.2016354419
 21
142.3300514076
 31
0.0
  0
LINE
  5
11B
  8
0
  6
SLD-実線
 62
     7
 10
65.9614426933
 20
138.6800513215
 30
0.0
 11
66.1057804629
 21
138.9300513625
 31
0.0
  0
ARC
  5
11C
  8
0
  6
SLD-実線
 62
     7
 10
65.7016351271
 20
138.830051445
 30
0.0
 40
0.3000000141542976
 50
210.0000256733
 51
329.9999743267
  0
LINE
  5
11D
  8
0
  6
SLD-実線
 62
     7
 10
65.297490257
 20
138.9300513625
 30
0.0
 11
65.4418275609
 21
138.6800513215
 31
0.0
  0
LINE
  5
11E
  8
0
  6
SLD-実線
 62
     7
 10
59.8557808354
 20
138.9300513625
 30
0.0
 11
59.9516353488
 21
139.0960768409
 31
0.0
  0
LINE
  5
11F
  8
0
  6
SLD-実線
 62
     7
 10
59.8557808354
 20
138.9300513625
 30
0.0
 11
59.0474896982
 21
138.9300513625
 31
0.0
  0
LINE
  5
120
  8
0
  6
SLD-実線
 62
     7
 10
58.9516351849
 20
139.0960768409
 30
0.0
 11
59.0474896982
 21
138.9300513625
 31
0.0
  0
LINE
  5
121
  8
0
  6
SLD-実線
 62
     7
 10
58.9516351849
 20
139.0960768409
 30
0.0
 11
58.9516351849
 21
142.3300514076
 31
0.0
  0
LINE
  5
122
  8
0
  6
SLD-実線
 62
     7
 10
59.9516353488
 20
139.0960768409
 30
0.0
 11
59.9516353488
 21
142.3300514076
 31
0.0
  0
LINE
  5
123
  8
0
  6
SLD-実線
 62
     7
 10
59.8557808354
 20
138.9300513625
 30
0.0
 11
59.7114426002
 21
138.6800513215
 31
0.0
  0
ARC
  5
124
  8
0
  6
SLD-実線
 62
     7
 10
59.4516352668
 20
138.8300511554
 30
0.0
 40
0.2999996676943512
 50
210.0
 51
330.0
  0
LINE
  5
125
  8
0
  6
SLD-実線
 62
     7
 10
59.1918279335
 20
138.6800513215
 30
0.0
 11
59.0474896982
 21
138.9300513625
 31
0.0
  0
LINE
  5
126
  8
FORMAT
 62
     7
 10
74.1516352892
 20
155.2300514087
 30
0.0
 11
80.7516352892
 21
155.2300514087
 31
0.0
  0
ENDSEC
  0
EOF
